Correcció de Vídeos

El fòrum general de la comunitat del fenòmen Tocamela.cat! El punt de reunió dels Tocamelons de Catalunya i arreu del món. Aqui podeu parlar de la pàgina, dels vídeos, i dir la vostra!

Correcció de Vídeos

EntradaAutor: Albert » 31 març 2009, 18:48

Iepp!!!!!!!!!; què passa tocamelons????

Algun vídeo que l'hem cagat de adal a baix amb el acords o tablatures????; tens alguna tablatura per algún vídeo???

Posa les correccions aquí!!!

Posa la url del vídeo; el què està malament (si hi ha algo) i el què s'a de posar; exemple:

Exemple 1 ha escrit:Vídeo: http://www.tocamela.cat/video/tercer-mo ... tremoduro/

Està malament:

Els acords.

S'ha de posar:

Lam, Re# i Sol.


Exemple 2 ha escrit:Vídeo: http://www.tocamela.cat/video/tercer-mo ... tremoduro/

S'ha de posar:

|------------------------------------------|
|---------3--------------------------------|
|------0------5----------------------------|
|------------------------------------------|
|------------------------------------------|
|------------------------------------------|




Gràcies per ajudar-nos!!!!!!!
"Si tocas un Sim7 rasgando hacia abajo, diagonal alante y alante rapido y con fuerza y le das a puño fuerte saldra una bola de fuego". Comentari anònim d'aquest video.

Tocamela's Webmonster
Tocamela's Backstage|Disseny Web|Tocamela
Avatar de l’usuari
Albert
Professor invisible
Professor invisible
 
Entrades: 3405
Membre des de: 08 oct. 2007, 15:41
 

Re: Correcció de Vídeos

EntradaAutor: dyura » 01 abr. 2009, 17:36

holaaaa

http://www.tocamela.cat/maria-zulu-9-30/

esta malament l'acord del La #

que no es correspon amb el dibujillo!!!

;)
fura
dyura
Agafo la guitarra al revés
Agafo la guitarra al revés
 
Entrades: 3
Membre des de: 01 set. 2008, 10:06
 

Re: Correcció de Vídeos

EntradaAutor: blackmogul » 02 abr. 2009, 15:18

dyura ha escrit:holaaaa

http://www.tocamela.cat/maria-zulu-9-30/

esta malament l'acord del La #

que no es correspon amb el dibujillo!!!

;)

A que te refieres, a que no utilizan ellos en el vídeo el mismo formato de la sostenido que el del dibujo, o que el dibujo en sí está mal? Mercí!!
:mrgreen:
Salut!
He dicho ya que este verano me voy a ver a Pearl Jam?? MUAHAHAHAHAHA!
Avatar de l’usuari
blackmogul
Col·laborador Tocameló
Col·laborador Tocameló
 
Entrades: 1907
Membre des de: 18 maig 2008, 18:42
 

Re: Correcció de Vídeos

EntradaAutor: Jepi » 07 abr. 2009, 10:14

bueno el meu dubte es sobre la canço standby tocada per en xavi.
Al punteig inicial começa al traste 7 sisena corda i despres traste 5 a la cuarta i cinquena corda.

He estat mirant tablatures i e trobat que comença al 2 traste 5 corda i despres 4 i 3 i 4 al aire

Es posible?!
Jepi
Agafo la guitarra al revés
Agafo la guitarra al revés
 
Entrades: 2
Membre des de: 08 set. 2008, 04:44
 

Re: Correcció de Vídeos

EntradaAutor: blackmogul » 07 abr. 2009, 18:16

Jepi ha escrit:bueno el meu dubte es sobre la canço standby tocada per en xavi.
Al punteig inicial começa al traste 7 sisena corda i despres traste 5 a la cuarta i cinquena corda.

He estat mirant tablatures i e trobat que comença al 2 traste 5 corda i despres 4 i 3 i 4 al aire

Es posible?!

Traste 7 en la sexta es lo mismo que traste 2 en la quinta, la misma nota, luego puedes tocarla en cualquiera de los dos sitios por que son exactas (a priori).
He dicho ya que este verano me voy a ver a Pearl Jam?? MUAHAHAHAHAHA!
Avatar de l’usuari
blackmogul
Col·laborador Tocameló
Col·laborador Tocameló
 
Entrades: 1907
Membre des de: 18 maig 2008, 18:42
 

Re: Correcció de Vídeos

EntradaAutor: bendo » 10 abr. 2009, 13:19

Despres de vorel dosmil voltes he vist que el video es titula "This boots are made for walking" (esta botes)

menuda falta de gramática! En realitat es: "These boots are made for walking" (estes botes)
Avatar de l’usuari
bendo
Moderador anti Sim
Moderador anti Sim
 
Entrades: 2762
Membre des de: 28 gen. 2009, 12:25
Ubicació: A les dos i cuart
 

Re: Correcció de Vídeos

EntradaAutor: Galith » 10 abr. 2009, 13:21

uop, en el video del Xavi tocant la cançó "insurrección" de el ultimo de la fila, falta posar els acords abaix 8-)
Es genial comprobar que todavía tienes la capacidad de sorprenderte a ti mismo.
Avatar de l’usuari
Galith
Dominant escales
Dominant escales
 
Entrades: 225
Membre des de: 13 març 2009, 00:33
Ubicació: Barcelona
 

Re: Correcció de Vídeos

EntradaAutor: valls » 15 abr. 2009, 13:31

bendo ha escrit:Despres de vorel dosmil voltes he vist que el video es titula "This boots are made for walking" (esta botes)

menuda falta de gramática! En realitat es: "These boots are made for walking" (estes botes)


Arrgelat el tema del títol i un acord que hi faltava.
he intentat posar la lletra i els acords a sota però l'editor aquest em t'he ....... >:-E :twisted: >:-E :twisted: >:-E
Tocamelons of the world, d'on sou??
Avatar de l’usuari
valls
Administrador Antipàtic
Administrador Antipàtic
 
Entrades: 3936
Membre des de: 03 oct. 2007, 11:56
Ubicació: L.G. City
 

Re: Correcció de Vídeos

EntradaAutor: Sancho_Cogollos » 07 maig 2009, 16:17

En la cançó No woman no cry, podrieu posar la tablatura de la intro perfavor m'es urgent

http://www.tocamela.cat/video/no-woman-no-cry/


Molte gràcies!!
Sancho_Cogollos
Agafo la guitarra al revés
Agafo la guitarra al revés
 
Entrades: 1
Membre des de: 07 maig 2009, 16:14
 

Re: Correcció de Vídeos

EntradaAutor: mikk » 21 maig 2009, 21:36

Podríais poner esto al lado del video de Llença't

http://tac822.net/consultes/mostra_canc ... nco&id=314

Así como está puesto en Boig per tu.
Imatge
Más música de la que podrías escuchar:
http://lastfmusic.blogspot.com/
Avatar de l’usuari
mikk
Dominant escales
Dominant escales
 
Entrades: 217
Membre des de: 01 des. 2007, 01:11
 

Re: Correcció de Vídeos

EntradaAutor: bendo » 25 maig 2009, 09:26

en el video de animal instinct han deixat este comentari:

http://www.tocamela.cat/video/animal-in ... amberries/

polet 9/4/2009 6:12:00 AM

Crec que aquesta seria la correcta posicio dels acords:

Min Lam7 Do9
Suddenly something has happened to me
Re Min
As I was having my cup of tea
Min Lam7 Do9
Suddenly I was feeling depressed
Re Min
I was utterly and totally stressed
Min Lam7 Do9 Min
Do you know you made me cry ohohh
Lam7 Do9 Re
Do you know you made me die


Min Lam7
And the thing that gets to me
Do9 Re
Is you'll never really see
Min Lam7
And the thing that freaks me out
Do9 Re
Is I'll always be in doubt
Sol Re Do9
It is a lovely thing that we have
Re Sol
It is a lovely thing that we
Sol Re
It is a lovely thing, the animal
Do Re
The animal instinct
Min-Lam7-Do9-Re
uuhhuhuh (x2)

Min Lam7 Do9
So take my hands and come with me
Re Min
We will change reality
Min Lam7 Do9
So take my hands and we will pray
Re Min
They won't take you away
Min Lam7 Do9 Min
They will never make me cry, no ohhhh
Lam7 Do9 Re
They will never make me die


Min Lam7
And the thing that gets to me
Do9 Re
Is you'll never really see
Min Lam7
And the thing that freaks me out
Do9 Re
Is I'll always be in doubt



The animal, the animal, the animal instinct in me

It's the animal, the animal, the animal instinct in me

It's the animal, it's the animal, it's the animal instinct in me [x2]
Avatar de l’usuari
bendo
Moderador anti Sim
Moderador anti Sim
 
Entrades: 2762
Membre des de: 28 gen. 2009, 12:25
Ubicació: A les dos i cuart
 

Re: Correcció de Vídeos

EntradaAutor: Shyro » 23 juny 2009, 16:47

Boneees!

Doncs a mi si que m' agradaria que possesiu alguns solos, o coses així, com per exemple el de Stairway to Heaven de Led Zeppelin, que es un solo que, normalment, tot guitarrista vol tocar xD

Gràcies!
Shyro
Començo
Començo
 
Entrades: 17
Membre des de: 07 set. 2008, 00:10
 

Re: Correcció de Vídeos

EntradaAutor: valls » 23 juny 2009, 17:01

Shyro ha escrit:Boneees!

Doncs a mi si que m' agradaria que possesiu alguns solos, o coses així, com per exemple el de Stairway to Heaven de Led Zeppelin, que es un solo que, normalment, tot guitarrista vol tocar xD

Gràcies!


Oido barra xD
Tocamelons of the world, d'on sou??
Avatar de l’usuari
valls
Administrador Antipàtic
Administrador Antipàtic
 
Entrades: 3936
Membre des de: 03 oct. 2007, 11:56
Ubicació: L.G. City
 

Re: Correcció de Vídeos

EntradaAutor: oriolalcala » 02 jul. 2009, 13:54

Englishman in new york

http://www.tocamela.cat/video/english-man-on-new-york/

Els acords haurien de ser aquests:

http://www.ultimate-guitar.com/tabs/s/s ... rk_crd.htm

Els he provat amb la cançó original i son els bons!

:solo:
oriolalcala
Agafo la guitarra al revés
Agafo la guitarra al revés
 
Entrades: 1
Membre des de: 02 jul. 2009, 13:39
 

Re: Correcció de Vídeos

EntradaAutor: eduardsaleslopez » 04 ago. 2009, 16:36

jo diria que a la cançó de zombie, d'en feliu el mi menor 7 està equivocat , pero no n'estic gaire segur

:metal:
Avatar de l’usuari
eduardsaleslopez
Primers acords
Primers acords
 
Entrades: 26
Membre des de: 03 ago. 2009, 16:41
 

Re: Correcció de Vídeos

EntradaAutor: Edugd » 18 ago. 2009, 16:11

a mi m'agradaria que es fes el solo de hayway to hell pero que s'entengui
http://guitarra-edu.blogspot.com
avatars realitzats:
Spoiler: ensenya
- edugd
- niiiL_7
- adrigabri
- ohthebest
- oldow


Entra ja i no t'ho perdis
Avatar de l’usuari
Edugd
He lligat amb la guitarra
He lligat amb la guitarra
 
Entrades: 646
Membre des de: 20 jul. 2009, 17:03
Ubicació: Al garatge tocant amb el grup XD
 

Re: Correcció de Vídeos

EntradaAutor: carlees » 26 ago. 2009, 03:22

crec que a la canço si et quedes amb mi de en xavi el acord sim que fa ell no correspon amb el del dibuixet jeje
saluts! :taja:
Avatar de l’usuari
carlees
Col·laborador Tocameló
Col·laborador Tocameló
 
Entrades: 120
Membre des de: 31 maig 2009, 19:55
 

Re: Correcció de Vídeos

EntradaAutor: Edugd » 21 feb. 2010, 00:23

http://www.tocamela.cat/video/nou-video/

poso la tablatura explicada en aquest vídeo ok??
s'entén més que la que està posada sota el vídeo

1a parte
E|-------------------|-------------------|-----------------|-------------------|
B|-------------------|-------------------|-----------------|-------------------|
G|---9-9-9-9-9-9-9---|---------------6-6-|-6-6-6-6-6-6-----|-------------------|
D|---9-9-9-9-9-9-9-9-|-9-9-9-9-9-9-9-6-6-|-6-6-6-6-6-6-6-6-|-6-6-6-6-6-6-6-6-7-|
A|---7-7-7-7-7-7-7-9-|-9-9-9-9-9-9-9-4-4-|-4-4-4-4-4-4-6-6-|-6-6-6-6-6-6-6-6-7-|
E|-----------------7-|-7-7-7-7-7-7-7-----|-------------4-4-|-4-4-4-4-4-4-4-4-5-|

E|-------------------|-------------------|-----------------|-------------------|
B|-------------------|-------------------|-----------------|-------------------|
G|---------------9-9-|-9-9-9-9-9-9-9-----|-----------------|---------------9---|
D|---7-7-7-7-7-7-9-9-|-9-9-9-9-9-9-9-----|-9-9-9-9-9-9-9-9-|-9-9-9-9-9-9-9-9---|
A|---7-7-7-7-7-7-7-7-|-7-7-7-7-7-7-7-0-0-|-9-9-9-9-9-9-9-9-|-9-9-9-9-9-9-9-7---|
E|---5-5-5-5-5-5-----|-------------------|-7-7-7-7-7-7-7-7-|-7-7-7-7-7-7-7-----|


2a parte
E|--------------------|-----------------|-----------------|-----------------|
B|--------------------|-----------------|-----------------|-----------------|
G|--------------------|-------------9-9-|-9-9-9-9-9-9-9-9-|-9-9-9-9-9-9-9-9-|
D|---7-7-7-7--7-7-9-9-|-9-9-9-9-9-9-9-9-|-9-9-9-9-9-9-9-9-|-9-9-9-9-9-9-9-9-|
A|---7-7-7-7--7-7-9-9-|-7-7-7-7-7-7-7-7-|-7-7-7-7-7-7-7-7-|-7-7-7-7-7-7-7-7-|
E|---5-5-5-5--5-5-7-7-|-7-7-7-7-7-7-7---|-----------------|-----------------|


3a parte
E|--------------------|------------------------|----------------------|
B|--------------------|------------------------|----------------------|
G|---9-----7--7-----6-|-(6)--6--6---6--6--6----|----------------------|
D|---9-----7--7-----6-|-(6)--6--6---6--6--6--7-|-7---7--7--7--7--7--9-|
A|---7-----5--5-----4-|-(4)--4--4---4--4--4--7-|-7---7--7--7--7--7--9-|
E|--------------------|----------------------5-|-5---5--5--5--5--5--7-|

E|----------------------------------------------------|
B|----------------------------------------------------|
G|------------------------9-9-------------------------|
D|---(9)--9--9---9--9--9--9-9-9-9-9-9-11-11-11-9-9-9--|
A|---(9)--9--9---9--9--9--7-7-9-9-9-9-11-11-11-9-9-9--|
E|---(7)--7--7---7--7--7------7-7-7-7- 9- 9- 9-7-7-7--|


4a parte (con la palma de la mano tapando cuerdas)
E|------------------------|
B|------------------------|
G|------------------------|
D|---7-7-7-7-7-9-9-9-9-9--|
A|---7-7-7-7-7-9-9-9-9-9--|
E|---5-5-5-5-7-7-7-7-7-7--|


1a parte
E|-------------------|-------------------|-----------------|-------------------|
B|-------------------|-------------------|-----------------|-------------------|
G|---9-9-9-9-9-9-9---|---------------6-6-|-6-6-6-6-6-6-----|-------------------|
D|---9-9-9-9-9-9-9-9-|-9-9-9-9-9-9-9-6-6-|-6-6-6-6-6-6-6-6-|-6-6-6-6-6-6-6-6-7-|
A|---7-7-7-7-7-7-7-9-|-9-9-9-9-9-9-9-4-4-|-4-4-4-4-4-4-6-6-|-6-6-6-6-6-6-6-6-7-|
E|-----------------7-|-7-7-7-7-7-7-7-----|-------------4-4-|-4-4-4-4-4-4-4-4-5-|

E|-------------------|-------------------|-----------------|-------------------|
B|-------------------|-------------------|-----------------|-------------------|
G|---------------9-9-|-9-9-9-9-9-9-9-----|-----------------|---------------9---|
D|---7-7-7-7-7-7-9-9-|-9-9-9-9-9-9-9-----|-9-9-9-9-9-9-9-9-|-9-9-9-9-9-9-9-9---|
A|---7-7-7-7-7-7-7-7-|-7-7-7-7-7-7-7-0-0-|-9-9-9-9-9-9-9-9-|-9-9-9-9-9-9-9-7---|
E|---5-5-5-5-5-5-----|-------------------|-7-7-7-7-7-7-7-7-|-7-7-7-7-7-7-7-----|


Parte final

E|----------------------------------|
B|----------------------------------|
G|---9-9-9-9-----------9-------9----|
D|---9-9-9-9-9-9-9-9-7-9-9---7-9-9--|
A|---7-7-7-7-9-9-9-9-7-7-9---7-7-9--|
E|-----------7-7-7-7-5---7---5---7--|
http://guitarra-edu.blogspot.com
avatars realitzats:
Spoiler: ensenya
- edugd
- niiiL_7
- adrigabri
- ohthebest
- oldow


Entra ja i no t'ho perdis
Avatar de l’usuari
Edugd
He lligat amb la guitarra
He lligat amb la guitarra
 
Entrades: 646
Membre des de: 20 jul. 2009, 17:03
Ubicació: Al garatge tocant amb el grup XD
 

Re: Correcció de Vídeos

EntradaAutor: intratable » 18 març 2010, 01:44

Albert, surten uns quants videos assignats als Dire Straits que no són dels Dire Straits (inclòs l'himne del Barça...):
http://www.tocamela.cat/videos/grup/14-dire-straits/

De fet, les dues que n'ha fet el Roberto no hi surten.
"Cap esforç és en va i tot ajuda, però encara queda molt camí." (Albert Catalan, posseït per Miquel Martí i Pol)
--
http://www.lluismarti.cat
Avatar de l’usuari
intratable
Professor Estoic
Professor Estoic
 
Entrades: 860
Membre des de: 15 gen. 2008, 14:02
Ubicació: Rubí
 


Torna a: General

Qui està connectat

Usuaris navegant en aquest fòrum: No hi ha cap usuari registrat i 1 visitant

cron