To Hell With The Devil - Stryper

Aqui és on es penjen i comenten tablatures de guitarra i baix. Si teniu una tablatura o acords per compartir, posa les aquí! Llegiu les normes abans de penjar.

To Hell With The Devil - Stryper

EntradaAutor: alberich_X » 22 ago. 2008, 01:29

Intro:
Gtr. 1
A5 F5

e------|-------|---------|---------|---------------|
b------|-------|---------|---------|---------------|
g---2--|--(2)--|--(2)----|--(2)----|---------------|
D---2--|--(2)--|--(2)----|--(2)----|-3-------------|
A---0--|--(0)--|--(0)----|--(0)----|-3-------------|
E------|-------|---------|---------|-1-------------|

(Hold A5 Til F5) |
Gtr. 2 |

e------|-------|-20~~~~~~|-19~~~~~~|---------------|
b------|-------|---------|---------|-20-(20)~~~~~~-|
g------|-------|---------|---------|---------------|
D------|-------|---------|---------|---------------|
A------|-------|---------|---------|---------------|
E------|-------|---------|---------|---------------|

Gtr. 1
F5 G5 E5 A5 G5

e--------------------------------------------------|--------|---------|
b--------------------------------------------------|--------|---------|
g--------------------------------------------------|-2------|--0------|
D--3------------------------------5--------------2-|-2------|--0------|
A--3------------------------------5--------------2-|-0------|--x------|
E--1------------------------------3--------------0-|--------|--3------|

Gtr. 2

e-------------------------------------------------|-20~~~~~~|-19~~~~~~|
b-(20)---20--18h20-18\17-----18--17h18--17\15-----|---------|---------|
g----------------------------------------------17-|---------|---------|
D-------------------------------------------------|---------|---------|
A-------------------------------------------------|---------|---------|
E-------------------------------------------------|---------|---------|

Gtr.1
F5 E5

e-----------------------|---------------------|
b-----------------------|---------------------|
g-----------------------|---------------------|Repeat Intro
D-3---------------------|----------------2--0-|
A-3---------------------|--2------2------3--2-|
E-1---------------------|--0---3--3--3/3------|

Gtr. 2 (** first time **)|(** second time **)

e-----------------------|---------------------|-----------------------|
b-20~~~~~~--b20--18\17--|-17h18--17\15--------|-17h18--17\15----------|
g-----------------------|--------------17--16-|--------------17-16~~~~|
D-----------------------|---------------------|-----------------------|
A-----------------------|---------------------|-----------------------|
E-----------------------|---------------------|-----------------------|

Gtr. 1
A5

e-------|-------|-------|-------------------|
b-------|-------|-------|-------------------|
g---2---|--(2)--|--(2)--|-------------------|
D---2---|--(2)--|--(2)--|--2--2---2---------|
A---0---|--(0)--|--(0)--|--0--3---3--2--3/0-|
E-------|-------|-------|------------3------|

Hold A5 til riff
Gtr. 2

e-------|-------|-------|-------------------|
b-------|-------|-------|-------------------|
g-------|-------|-------|-------------------|
D-------|-------|-------|-------------------|
A-------|-------|-------|-------------------|
E-------|-------|-------|-------------------|

Verse 1:
N.C.
Well, speak of the devil
He's no friend of mine
To turn from him is what we've got in mind

Gtr. 1 & 2
A5

e-------------------|-------------------|---------------------------|
b-------------------|-------------------|--------------0h1--1--1--1-|
g-------------------|-------------------|--------------0h2--2--2--2-|
D--2----2-----------|--------------2----|--------2------------------|
A--3----3----2--3/0-|--0--0--0--0--0--0-|--0--0--0--0---------------|
E------------3------|-------------------|---------------------------|
Just a liar and___ ___ a thief

Gtr. 1 & 2
A5 G5

e--------------------------|------------------------|---------------|
b-(1)----------------------|------------------------|---------------|
g-(2)----------------------|------------------------|-0-------------|
D---------------------2----|-------2-----------2----|-0-------------|
A---------0--0--0--0--0--0-|-0--0--0--0--0--0--0--0-|-x-------------|
E--------------------------|------------------------|-3-------------|

the word tells us so We'd like to let him

Gtr. 1 & 2

e---------------------|
b---------------------|
g------------------2--|
D--2---0-----------2--|
A--3---2---3/0--2--0--|
E---------------3-----|
know where he can go...

Chorus:
Gtr. 1
F5 G5 A5 N.C. F5

e----|------|-----------|---------|-----------------|-------------------|
b----|------|-----------|---------|-----------------|-------------------|
g----|------|--0--------|--2------|-(2)-------------|-------------------|
D----|--3---|--0--------|--2------|-(2)--2-0--------|-3-----------------|
A----|--3---|--x--------|--0------|-(0)--3-2--3/0-2-|-3-----------------|
E----|--1---|--3--------|---------|---------------3-|-1-----------------|

Gtr. 2

e----|------|-----------|-20/17---|--19/15----------|-------------------|
b----|------|-----------|---------|-----------------|-20/17----(20)/17\-|
g----|------|-----------|---------|-----------------|-------------------|
D----|------|-----------|---------|-----------------|-------------------|
A----|------|-----------|---------|-----------------|-------------------|
E----|------|-----------|---------|-----------------|-------------------|

To hell with___the devil To hell

Gtr. 1

G5 A5

e-----------------|---------|------|------|----------------------|
b-----------------|---------|------|------|----------------------|
g--0--------------|---2-----|-(2)--|-(2)--|-(2)(2)---------------|
D--0--------------|---2-----|-(2)--|-(2)--|-(2)(2)-2---2---------|
A--x--------------|---0-----|-(0)--|-(0)--|-(0)(0)-3---3--2--3/0-|
E--3-----------b3-|---------|------|------|---------------3------|

with the devil

solo

e------7-4-0---7-4-0---7-4-0---7-4-0---7-4-0-----13-8-5---13-8-5---13-8-5-
B-------------------------------------------------------------------------
G-------------------------------------------------------------------------
D-------------------------------------------------------------------------
A-------------------------------------------------------------------------
E-------------------------------------------------------------------------
e-------13-8-5-----------10---19--19/20\19---------------------------------
B--------------------------------------------------------------------------
G--------------10-------9----------------------9-10--9-10---7-9--7-9-------
D----------------------------------------------9-10--9-10---7-9--7-9-------
A--------------------------------------------------------------------------
E--------------------------------------------------------------------------
e--------------------------------------------------------------------------
B---------------------------------12-13-15-13-12-13-12-----12-13-15--------
G-------5-7--5-7---4-5--4-5--2-------------------------14------------------
D-------5-7--5-7---4-5--4-5--2---------------------------------------------
A----------------------------0---------------------------------------------
E--------------------------------------------------------------------------
e------12-13-15--20---------12---------------------------------------------
B------------------------------15-13-12--15-13-12-----13-12-------12-------
G-------------------------------------------------14--------14-12----14-12-
D--------------------------------------------------------------------------
A--------------------------------------------------------------------------
E--------------------------------------------------------------------------
e--------------------------------------------------------------------------
B--------------------------------------------------------------------------
G-----------14-12---------12----------------------9--7---------------------
D------15----------15-14----15-14-12--10-10-9-7--------10--9--9/10--7------
A-----------------------------------------------8--------------------------
E--------------------------------------------------------------------------
e-----------------24/(25)-22-----------------------------------------------
B------22-24/(25)----------------------------------------------------------
G------------------------------9-10-12---9-10-12---9-10-12---9-10-12-------
D--------------------------------------------------------------------------
A--------------------------------------------------------------------------
E--------------------------------------------------------------------------
e--------------------------------------------------------------------------
B-------------------------------------------------------10------------10---
G------9-10-12---9-10-12---9-10-12---9-10-12---9-10-12-----12-9-10-12------
D--------------------------------------------------------------------------
A--------------------------------------------------------------------------
E--------------------------------------------------------------------------
e--------------------------------------------------------------------------
B----------------10------------10------------------------------------------
G-----12-9-10-12-----12-9-10-12----12-9-9/(10)\9--7-5--7-5-4-7-5-4-5-4-----
D-----------------------------------------------------------------------7--
A--------------------------------------------------------------------------
E--------------------------------------------------------------------------
e-------------------------17--15-----24/(25)-22-----------22-23-24-25-26-27
B--------------------------------17--------------22-24-25------------------
G--------------------------------------------------------------------------
D-----7--\--6--\--5--------------------------------------------------------
A-----7--\--6--\--5--------------------------------------------------------
E-----5--\--4--\--3--------------------------------------------------------
e-------------------------------|
B-------------------------------|
G-------------------------------|
D-----7---5---------------------|
A------------7---6---5----------|
E-----------------------8---5---|




Avatar de l’usuari
alberich_X
The King Of Tabs & Chords
The King Of Tabs & Chords
 
Entrades: 228
Membre des de: 22 ago. 2008, 00:51
Ubicació: Cantabria, Teruel, Palencia...
 

Re: To Hell With The Devil - Stryper

EntradaAutor: alberich_X » 29 gen. 2011, 02:52

INT] -> A5 G5 AG F5 G5 A5


(Pausa)

Speak of the Devil

He´s no Friends of mine

To turn from him is
( C5 B5 A5 )
What we have in mind


A5
Just a lier and a thief

The world tells us so


G5 A5
We like to let him know Where be can go

(Refrão):
F5 G5 A5
To Hell with the Devil
F5 G5 A5 ( C5 B5 A5 )Power cord
To Hell with the Devil


A5
When things are going wrong.You know who to blame
G5 ( C5 B5 A5 )
He will always live.Up to his name
A5
He´s never been the answer

There´s a better way
G5
We are here to Rock you And to say...

(Refrão):
F5 G5 A5
To Hell with the Devil
F5 G5 A5
To Hell with the Devil

(Harmonia do Solo):
E F E A5 G5 F5 G5 A5 F5 G5 A5


(Refrão):
F5 G5 A5
To Hell with the Devil
F5 G5 A5
To Hell with the Devil
F5 G5 A5
To Hell with the Devil
F5 G5 A5
To Hell with the Devil
F5 G5 A5 A5 A5 A5 A5///
Avatar de l’usuari
alberich_X
The King Of Tabs & Chords
The King Of Tabs & Chords
 
Entrades: 228
Membre des de: 22 ago. 2008, 00:51
Ubicació: Cantabria, Teruel, Palencia...
 


Torna a: Tablatures i Acords

Qui està connectat

Usuaris navegant en aquest fòrum: No hi ha cap usuari registrat i 1 visitant

cron