Quiet Riot - Metal Health (Fácil) TAB

Aqui és on es penjen i comenten tablatures de guitarra i baix. Si teniu una tablatura o acords per compartir, posa les aquí! Llegiu les normes abans de penjar.

Quiet Riot - Metal Health (Fácil) TAB

EntradaAutor: alberich_X » 15 juny 2011, 15:50


002200
035500
355000
577000
044000
055000

e|------------------------------------------------------------------------------|
B|------------------------------------------------------------------------------|
G|2---5-----------5--2--5--2----------------------------------------------------|
D|2---5---5---5---5--2--5--2---5-----7------------------------------------------|
A|0---3---5---5---3--0--3--0---5-----7------------------------------------------|
E|--------3---3----------------3--/--5------------------------------------------|
Per la primera part del vers, interruptor de distorsió pesada a distorsió més lleugera amb
pedal.
e|-----------------------------------------------------------------------------|
B|-----------------------------------------------------------------------------|
G|2---4---5--4----2--4--5--4---------------------------------------------------|
D|2---4---5--4----2--4--5--4---------------------------------------------------|
A|0---------------0------------------------------------------------------------|
E|-----------------------------------------------------------------------------|
Per la segona part del vers, l'interruptor dóna suport a a distorsió pesada i utilize el palmell
on veus el x és a sota.
e|---------------------------------------------------------------------------|
B|---------------------------------------------------------------------------|
G|2------------4-----------5----------4-------2---4---5---7------------------|
D|2------------4-----------5----------4-------2---4---5---7------------------|
A|0-x-x-x-x-x----x-x-x-x-x---x-x-x-x-x--------0------------------------------|
E|---------------------------------------------------------------------------|Go back to
in intro.

Metal health will drive you crazy.........
e|-----------------------------------------------------------------------------|
B|-----------------------------------------------------------------------------|
G|-----------5-------------------5---------------------------------------------|
D|----7------5---5------7--------5----5---5-5-5-5-5-5-5-5-5-5------------------|
A|----7------3---5------7--------3----5---5-5-5-5-5-5-5-5-5-5------------------|
E|----5---------3-----5------------3---3-3-3-3-3-3-3-3-3-3---------------------|
Riff Sobre el solo. Escolta al cd per comptar quants temps vas colpejar cada acord.
e|---------------------------------------------------------------------------|
B|---------------------------------------------------------------------------|
G|5-5-----7--7---9--9--------------------------------------------------------|
D|5-5-----7--7---9--9--------------------------------------------------------|
A|3-3-----5--5---7--7--------------------------------------------------------|
E|---------------------------------------------------------------------------|Back to
Després de passar per els acords, un maco poc trencament avall passa. Palmell mute les notes
a sota. Una altra vegada, escolta al cd per cronometrar.

e|-------------------------------------------------------------------------------|
B|-------------------------------------------------------------------------------|
G|-------------------------------------------------------------------------------|
D|-------------------------------------------------------------------------------|
A|0-0-0-0-0-0-0-0--3----------------------3-0-3-0--------------------------------|
E|-------------------3-3-3-3-3-3-------3-----------------------------------------|

Allò l'és. He vist altres tabuladors en la internet per aquesta cançó i la majoria no van a
molt detall. Esperança aquestes ajudes. Keep rockin!



| / slide up
| slide down
| h hammer-on
| p pull-off
| ~ vibrato
| + harmonic
| x Mute note
Avatar de l’usuari
alberich_X
The King Of Tabs & Chords
The King Of Tabs & Chords
 
Entrades: 228
Membre des de: 22 ago. 2008, 00:51
Ubicació: Cantabria, Teruel, Palencia...
 

Torna a: Tablatures i Acords

Qui està connectat

Usuaris navegant en aquest fòrum: No hi ha cap usuari registrat i 1 visitant

cron