Sense tu - Teràpia de Shok

Aqui és on es penjen i comenten tablatures de guitarra i baix. Si teniu una tablatura o acords per compartir, posa les aquí! Llegiu les normes abans de penjar.

Sense tu - Teràpia de Shok

EntradaAutor: Edugd » 07 maig 2011, 00:47

Bueno aquí teniu la cançó: Sense tú de teràpia de shock, la part final me l'he tret d'oïda, els acords estaven a acords.net

Re
és de nit..
Sol
és tot fosc...
Mim La
estic sol i no hi ha ningú...
Re
és de nit...
Sol
un record...
Mim La
dins el cor, ella hi és a dins...
Re Sol
els seus ulls són brillants
Mim La
i un somriure extravaguen
Re Sol
ja no i és l'he perduda
Mim La
va marxa lluny del meu abast
Sol La
i sempre estarà el meu cor...

Re Sol
sense tu jo no puc
Mim La
sense tu si no i ets
Re Sol Mim
sense tu jo no soc ningú...
Re Sol
sense tu jo no puc
Mim La
sense tu si no i ets
Re Sol Mim
sense tu jo no soc ningú...

Re
és de nit...
Sol
és tot fosc..
Mim
no estic sol no ho estic
La
tu estàs amb mi
Re Sol
i els teus ulls són brillants
Mim La
i un somriure extravaguen
Sol La
i sempre estarà el meu cor...




Re Sol
sense tu jo no puc
Mim La
sense tu si no i ets
Re Sol Mim
sense tu jo no soc ningú...
Re Sol
sense tu jo no puc
Mim La
sense tu si no i ets
Re Sol Mim
sense tu jo no soc ningú...

La
nooohhoo

Re Sol
si no estàs aquí
Mim La
si no estàs amb mi
Re Sol
jo no et puc mirar
Mim La
jo no et puc sentir
Re Sol
si no estàs aquí
Mim La
si no estàs amb mi
Re Sol
jo no et puc tocar
Mim La
jo no et puc vessar
Sol La
i sempre estaràs el meu cor....

Re
és de nit....
Sol Mim La Re

i la part del final:

|-----------------------------------------------------------------------
|-----------------------------------------------------------------------
|----------0--2--0-----0--------------------------0--2--0-----0---------
|---0--4------------4-----4----------------0--4------------4-----4------
|-----------------------------------------------------------------------
|-----------------------------------------------------------------------

-----------------------------------------------------------------------|
-----------------------------------------------------------------------|
-----------------0--2--0-----0-----------------------------------------|
----------0--4------------4-----4---------------------0--2--0----------|
------------------------------------------------0--4-------------4-----|
-----------------------------------------------------------------------|
Edugd l’ha editat per darrera vegada el dia: 30 maig 2011, 22:27, en total s’ha editat 3 vegades.
http://guitarra-edu.blogspot.com
avatars realitzats:
Spoiler: ensenya
- edugd
- niiiL_7
- adrigabri
- ohthebest
- oldow


Entra ja i no t'ho perdis
Avatar de l’usuari
Edugd
He lligat amb la guitarra
He lligat amb la guitarra
 
Entrades: 646
Membre des de: 20 jul. 2009, 17:03
Ubicació: Al garatge tocant amb el grup XD
 

Re: Sense tu - Teràpia de Shok

EntradaAutor: MARIAA9876 » 07 maig 2011, 16:40

Edugd ha escrit:Bueno aquí teniu la cançó: Sense tú de teràpia de shock, la part final me l'he tret d'oïda, els acords estaven a acords.net

Re
és de nit..
Sol
és tot fosc...
Mim La
estic sol i no hi ha ningú...
Re
és de nit...
Sol
un record...
Mim La
dins el cor, ella hi és a dins...
Re Sol
els seus ulls són brillants
Mim La
i un somriure extravaguen
Re Sol
ja no i és l'he perduda
Mim La
va marxa lluny del meu abast
Sol La
i sempre estarà el meu cor...

Re Sol
sense tu jo no puc
Mim La
sense tu si no i ets
Re Sol Mim
sense tu jo no soc ningú...
Re Sol
sense tu jo no puc
Mim La
sense tu si no i ets
Re Sol Mim
sense tu jo no soc ningú...

Re
és de nit...
Sol
és tot fosc..
Mim
no estic sol no ho estic
La
tu estàs amb mi
Re Sol
i els teus ulls són brillants
Mim La
i un somriure extravaguen
Sol La
i sempre estarà el meu cor...




Re Sol
sense tu jo no puc
Mim La
sense tu si no i ets
Re Sol Mim
sense tu jo no soc ningú...
Re Sol
sense tu jo no puc
Mim La
sense tu si no i ets
Re Sol Mim
sense tu jo no soc ningú...

La
nooohhoo

Re Sol
si no estàs aquí
Mim La
si no estàs amb mi
Re Sol
jo no et puc mirar
Mim La
jo no et puc sentir
Re Sol
si no estàs aquí
Mim La
si no estàs amb mi
Re Sol
jo no et puc tocar
Mim La
jo no et puc vessar
Sol La
i sempre estaràs el meu cor....

Re
és de nit....
Sol Mim La Re

i la part del final:

|-----------------------------------------------------------------------
|-----------------------------------------------------------------------
|----------0--2--0-----0--------------------------0--2--0-----0---------
|---0--4------------4-----4----------------0--4------------4-----4------
|-----------------------------------------------------------------------
|-----------------------------------------------------------------------

-----------------------------------------------------------------------|
-----------------------------------------------------------------------|
-----------------0--2--0-----0------------------------0--2--0----------|
----------0--4------------4-----4--------------0--4------------4-------|
-----------------------------------------------------------------------|
-----------------------------------------------------------------------|


Hola!! em podries dir el rasgueig quan la canço diu: sense tu jo no puc, sense tu si no hi ets, sense tu jo, no soc ningu... Moltes gràcies!!
MARIAA9876
Agafo la guitarra al revés
Agafo la guitarra al revés
 
Entrades: 6
Membre des de: 07 maig 2011, 16:18
 

Re: Sense tu - Teràpia de Shok

EntradaAutor: Edugd » 07 maig 2011, 16:48

ho he posat a aquí:
http://forum.tocamela.cat/viewtopic.php?f=110&t=4734

el rasgat de la part que tu dius jo faig:
abaix(Re), abaix(Re), amunt(Re), abaix(Sol), abaix(sol), amunt(Sol), abaix(Mim), abaix(Mim), amunt(Mim), abaix(la), abaix(la), amunt(la), baix(Re), abaix(Re), amunt(Re), abaix(Sol), abaix(sol), amunt(Sol), abaix(Mim), abaix(Mim)....




espero q et serveixi
http://guitarra-edu.blogspot.com
avatars realitzats:
Spoiler: ensenya
- edugd
- niiiL_7
- adrigabri
- ohthebest
- oldow


Entra ja i no t'ho perdis
Avatar de l’usuari
Edugd
He lligat amb la guitarra
He lligat amb la guitarra
 
Entrades: 646
Membre des de: 20 jul. 2009, 17:03
Ubicació: Al garatge tocant amb el grup XD
 

Re: Sense tu - Teràpia de Shok

EntradaAutor: MARIAA9876 » 07 maig 2011, 16:53

Edugd ha escrit:ho he posat a aquí:
http://forum.tocamela.cat/viewtopic.php?f=110&t=4734

el rasgat de la part que tu dius jo faig:
abaix(Re), abaix(Re), amunt(Re), abaix(Sol), abaix(sol), amunt(Sol), abaix(Mim), abaix(Mim), amunt(Mim), abaix(la), abaix(la), amunt(la), baix(Re), abaix(Re), amunt(Re), abaix(Sol), abaix(sol), amunt(Sol), abaix(Mim), abaix(Mim)....


La veritat es que es el primer cop que em escric en aquest forum i m'he fet un lio amb aixo dels comentaris, per aixo ho tenia publicat a dos llocs diferents XD

Moltes gràcies per la teva ajuda!!
MARIAA9876
Agafo la guitarra al revés
Agafo la guitarra al revés
 
Entrades: 6
Membre des de: 07 maig 2011, 16:18
 

Re: Sense tu - Teràpia de Shok

EntradaAutor: Edugd » 07 maig 2011, 17:03

MARIAA9876 ha escrit:
Edugd ha escrit:ho he posat a aquí:
http://forum.tocamela.cat/viewtopic.php?f=110&t=4734

el rasgat de la part que tu dius jo faig:
abaix(Re), abaix(Re), amunt(Re), abaix(Sol), abaix(sol), amunt(Sol), abaix(Mim), abaix(Mim), amunt(Mim), abaix(la), abaix(la), amunt(la), baix(Re), abaix(Re), amunt(Re), abaix(Sol), abaix(sol), amunt(Sol), abaix(Mim), abaix(Mim)....


La veritat es que es el primer cop que em escric en aquest forum i m'he fet un lio amb aixo dels comentaris, per aixo ho tenia publicat a dos llocs diferents XD

Moltes gràcies per la teva ajuda!!



no passa res, a tothom li ha passat
http://guitarra-edu.blogspot.com
avatars realitzats:
Spoiler: ensenya
- edugd
- niiiL_7
- adrigabri
- ohthebest
- oldow


Entra ja i no t'ho perdis
Avatar de l’usuari
Edugd
He lligat amb la guitarra
He lligat amb la guitarra
 
Entrades: 646
Membre des de: 20 jul. 2009, 17:03
Ubicació: Al garatge tocant amb el grup XD
 


Torna a: Tablatures i Acords

Qui està connectat

Usuaris navegant en aquest fòrum: No hi ha cap usuari registrat i 1 visitant

cron