Survivor - Hesitation Dance (Tablatura main riff, fàcil)

Aqui és on es penjen i comenten tablatures de guitarra i baix. Si teniu una tablatura o acords per compartir, posa les aquí! Llegiu les normes abans de penjar.

Survivor - Hesitation Dance (Tablatura main riff, fàcil)

EntradaAutor: 3nr1c » 09 des. 2010, 22:42

Bueno a falta de cap tipus de tablatura/acords d'aquesta cançó (reconec que és poc coneguda, no estava al yutub i l'he hagut de penjar jo) m'he atrevit a treure la tablatura del principi. Em faltarien els acords i el solo, pero... :oops: :oops: :oops: :oops:

Be aquí va el vídeo:




I la tablatura:

~~~~HESITATION DANCE~~~~ (by 3nr1c)

Main Riff:
(Re) (La) (Sol)
e|-----|---------|-3-3-3-|
B|-----|-3-3-3-2-|-0-0-0-|
G|-----|-2-2-2-2-|-0-0-0-|
D|-2-2-|-0-0-0-2-|-0-0-0-|
A|-0-0-|---------|-------|
E|-0-0-|---------|-------|
v v v ^ v v v ^ v

|------|---------|-------|
|-3----|-3-3-3-2-|-3-3-3-|
|-2----|-2-2-2-2-|-2-2-2-|
|-0--2-|-0-0-0-2-|-0-0-0-|
|----0-|---------|-------|
|----0-|---------|-------|
v v v ^ v v v ^ v

|--------------|
|--------------|
|--------------|
|--------------|
|-------------0|
|-2/3-2-0-2-3--|

(Sol)
e|---|---------|-3-3-3-|
B|---|-3-3-3-2-|-0-0-0-|
G|---|-2-2-2-2-|-0-0-0-|
D|-2-|-0-0-0-2-|-0-0-0-|
A|-0-|---------|-------|
E|-0-|---------|-------|

|------|---------|-------|
|-3----|-3-3-3-2-|-3-3-3-|
|-2----|-2-2-2-2-|-2-2-2-|
|-0--2-|-0-0-0-2-|-0-0-0-|
|----0-|---------|-------|
|----0-|---------|-------|

|--------------|
|--------------|
|--------------|
|--------------|
|-------------0|
|-2/3-2-0-2-3--|



Chorus:

Hesitation dance ~~~

|-------------9-------|
|----10-10------12-10-|
|-11-------11---------|
|---------------------|
|---------------------|
|---------------------|


Ja direu que us sembla!!
Avatar de l’usuari
3nr1c
Primers acords
Primers acords
 
Entrades: 29
Membre des de: 21 juny 2010, 16:00
 

Re: Survivor - Hesitation Dance (Tablatura main riff, fàcil)

EntradaAutor: alberich_X » 11 des. 2010, 14:33

:solo: :metal: :brutal:
survivor molan!
Avatar de l’usuari
alberich_X
The King Of Tabs & Chords
The King Of Tabs & Chords
 
Entrades: 228
Membre des de: 22 ago. 2008, 00:51
Ubicació: Cantabria, Teruel, Palencia...
 

Re: Survivor - Hesitation Dance (Tablatura main riff, fàcil)

EntradaAutor: 3nr1c » 12 des. 2010, 23:49

alberich_X ha escrit::solo: :metal: :brutal:
survivor molan!

:solo: :solo: :solo: :solo: :solo: :metal: :metal: :metal:

Estic treient l'altre part de la cançó :cool: :cool: :cool: :cool:
Avatar de l’usuari
3nr1c
Primers acords
Primers acords
 
Entrades: 29
Membre des de: 21 juny 2010, 16:00
 


Torna a: Tablatures i Acords

Qui està connectat

Usuaris navegant en aquest fòrum: No hi ha cap usuari registrat i 1 visitant

cron