Río-Contéstame (MEDIo- FACIL)

Aqui és on es penjen i comenten tablatures de guitarra i baix. Si teniu una tablatura o acords per compartir, posa les aquí! Llegiu les normes abans de penjar.

Río-Contéstame (MEDIo- FACIL)

EntradaAutor: santiagui » 11 oct. 2010, 03:10

Bueno gentita aca le dejo unos acordes de un grupo peruano que esta bien piola su rola

[youtube]http://www.youtube.com/watch?v=NzTtEOnnhKE[/youtube]



F
Dm
[acord]LA#[/acord]
LA


intro:
e----1----1-------1--0-------------------
B--1--------1-----------1----------------
G------2------2--------------------------
D----------------------------------------
a----------------------------------------
E----------------------------------------

verso:

F Dm
HOY QUE YA SABES LO QUE PIENSO YO
A# LA
Y CUANTO COSTO DECIRTELO
F Dm
LAS COSAS EN LA UNI NO ME FUERON BIEN
A# LA
YO NOSIRVO PARA SER UN DOCTOR

e----1----1-------1--0-------------------
B--1--------1-----------1----------------
G------2------2--------------------------
D----------------------------------------
a----------------------------------------
E----------------------------------------

F Dm
MUSICA ES LO QUE ME GUSTA A MI
A# LA
BATERISTA ROCKERO QUIERO SER
F Dm
TENGO UNA BANDA QUE SUENA MUY BIEN
A# LA
Y EL AMAUTA YO LO VOY LLENAR
A# C
VAS A AYUDARME


F C Dm A#
CONSTESTAME NO NO NO RESPONDEME
F C
TENDRAS QUE HACERLO AHORA
(2 VECES)

e----1----1-------1--0-------------------
B--1--------1-----------1----------------
G------2------2--------------------------
D----------------------------------------
a----------------------------------------
E----------------------------------------


F Dm
VIEJO COMPRENDE QUE NO TODOS SON
A# LA
GRANDES DOCTORES COMO TU
F Dm
ESTE ES EL MUNDO QUE SIEMPRE SOÑE
A# LA
NO ME OBLIGUES A TENER QUE HUIR
A# C
SUELTA MIS RIENDAS


CORO
Imatge
Avatar de l’usuari
santiagui
Agafo la guitarra al revés
Agafo la guitarra al revés
 
Entrades: 4
Membre des de: 26 set. 2010, 06:59
Ubicació: lima
 

Torna a: Tablatures i Acords

Qui està connectat

Usuaris navegant en aquest fòrum: No hi ha cap usuari registrat i 1 visitant

cron