Ennio Morricone - Chi Mai - Tablatura - Intermedio

Aqui és on es penjen i comenten tablatures de guitarra i baix. Si teniu una tablatura o acords per compartir, posa les aquí! Llegiu les normes abans de penjar.

Ennio Morricone - Chi Mai - Tablatura - Intermedio

EntradaAutor: pitonisa62 » 27 abr. 2008, 13:22

Las versiones de este tema que circulan por la red son de una dificultad considerable, por lo que he hecho mi propio arreglo adaptándolo a mis aptitudes en este momento. La he bajado dos semitonos, de La a Sol que le queda bastante bien, y a continuación la he desglosado en varias pistas, en la primera la melodía, en la segunda el bajo, en la tercera la parte rítmica, etc. Y todo ésto, ¿para qué?... Es bastante frustrante ir abandonando los temas que te gustan porque su dificultad no es apta para todos.
Y ahora la comparto con todos vosotros... Amén ;-)

Ennio Morricone - Chi Mai (Sountrack El Profesional)
Clave: SOL MAYOR Tiempo: 12/8 Velocidad: 90 beats por minuto

PISTA 1: MELODÍA


Vals Lento

E||--3------3------3------3------|--3------3------3------3------|
B||------------------------------|---------------------------------|
G||------------------------------|---------------------------------|
D||------------------------------|---------------------------------|
A||------------------------------|---------------------------------|
E||------------------------------|---------------------------------|


a Tempo

|---6g7------------6g7------6g7------|-----------5--3--5br----------------|
|----------------------------------------|-------------------------------------|
|*---------------------------------------|-------------------------------------|
|*---------------------------------------|-------------------------------------|
|----------------------------------------|-------------------------------------|
|----------------------------------------|-------------------------------------|



--3------0~------------2----3--|--3--------------------2----0--|
---------------------------------|---------1~---------------------|
---------------------------------|--------------------------------|
---------------------------------|--------------------------------|
---------------------------------|--------------------------------|
---------------------------------|--------------------------------|



--2----------------------------|---------0-------0-------------|
---------0~----------------L--|--------------3----------------|
-------------------------------|------------------------2------|
-------------------------------|-------------------------------|
-------------------------------|-------------------------------|
-------------------------------|-------------------------------|


\1/

---------7------5------------|--7~------------------------|
-----------------------------|-----------------------------|
-----------------------------|-----------------------------|
-----------------------------|-----------------------------|
-----------------------------|-----------------------------|
-----------------------------|-----------------------------|



--6g7-----------6g7------6g7---|-----------5--3--5~-----------|
-----------------------------------|-------------------------------|
-----------------------------------|-------------------------------|
-----------------------------------|-------------------------------|
-----------------------------------|-------------------------------|
-----------------------------------|-------------------------------|



--3S------12~----------------------|
-------------------------------------|
-------------------------11----12--|
-------------------------------------|
-------------------------------------|
-------------------------------------|



-----------------------------------------------------|-----------------------------------|
-----------------------------------------------------|-----------------------------------|
-----------------11-9-11---11-9-11---11-9-11---|--11------------------------------|
--10~-----------------------------------------------|----------9~----------------L-----|
-----------------------------------------------------|-----------------------------------|
-----------------------------------------------------|-----------------------------------|



--------------------------------------------|--------------------------------|
--------------------------------------------|--------------------------------|
--9~------------9-7-9---9-7-9---9-7-9---|--------------------------------|
--------------------------------------------|--7------7~----------------L--|
--------------------------------------------|--------------------------------|
--------------------------------------------|--------------------------------|



--------------------------------------------|---------0~----------------L--|
--------------------------------------------|-------------------------------|
--8~------------8-6-8---8-6-8---8-6-8---|-------------------------------|
--------------------------------------------|-------------------------------|
--------------------------------------------|-------------------------------|
--------------------------------------------|-------------------------------|



--L----------------L--------|--------------------------------------|
-----------------------------|--0----------0-1-0-------------------|
-----------------------------|-----------2-------2-0-2--------0---|
-----------------------------|----------------------------------4--|
-----------------------------|-------------------------------------|
-----------------------------|-------------------------------------|



---------------------------------------|--0----------0-1-0------------------|
-------------------------------0-1-3--|-----------3-------3--------L--1-0-|
--0----------------L-------0-2-------|-------------------------------------|
-----------------------2-4------------|-------------------------------------|
---------------------------------------|-------------------------------------|
---------------------------------------|-------------------------------------|



-------------------------------|---------0------2--------L-----|
--1----------------L------0---|--0-------------------------2--|
----------------------------2--|--------------------------------|
-------------------------------|--------------------------------|
-------------------------------|--------------------------------|
-------------------------------|--------------------------------|



------------------------0--2--|--3------7------5--------L-----|
--4----------------L----------|----------------------------5---|
-------------------------------|--------------------------------|
-------------------------------|--------------------------------|
-------------------------------|--------------------------------|
-------------------------------|--------------------------------|



------------------------------||
--7----------------L---------||
----------------------------*||
----------------------------*||
------------------------------||
------------------------------||

Puedes verla aquí: http://www.youtube.com/watch?v=vPxIi8Cmm-o

PISTA 2: BAJO



G||----------------------------|----------------------------|
D||----------------------------|----------------------------|
A||----------------------------|----------------------------|
E||----------------------------|----------------------------|



|----------4-------------4------|---------2-------------2------|
|*--2-------------2-------------|--0-------------0-------------|
|*-------------------------------|-------------------------------|
|--------------------------------|-------------------------------|



---------4------0-------------|--5------2--------------------|
--2--------------------4------|----------------4------0------|
-------------------------------|-------------------------------|
-------------------------------|-------------------------------|



--4---------------------------|------------------------------|
------------------------------|------------------------------|
---------2------2------2------|--3------3------0------0------|
------------------------------|------------------------------|



---------4-------------4------|---------4-------------4------|
-------------------------------|------------------------------|
--2-------------2-------------|--2-------------2-------------|
-------------------------------|------------------------------|



---------9-------------9------|---------7-------------7------|
--2---------------------------|--0-------------0-------------|
----------------7-------------|-------------------------------|
------------------------------|-------------------------------|



------------------------------|-----------------------7-------|
---------9-------------9------|---------7------0-------------|
------------------------------|--0----------------------------|
--8-------------8-------------|-------------------------------|



---------4-------------4------|---------4-------------4------|
--0-------------0-------------|------------------------------|
------------------------------|--3-------------3-------------|
------------------------------|-------------------------------|



---------2-------------2------|---------4-------------4------|
-------------------------------|------------------------------|
--3-------------3-------------|--2-------------2-------------|
-------------------------------|------------------------------|



---------9-------------0------|------------------------------|
--2-------------9-------------|------------------------------|
-------------------------------|--7---------------------------|
-------------------------------|---------7------3-------------|



-----------------------------|----------------------------|
-----------------------------|----------------------------|
-----------------------------|----------------------------|
--3------------2------------|--0-------------------------|



----------------------------|----------------------------|
----------------------------|----------------------------|
----------------------------|---------------0------------|
----------------------------|----------------------------|



-----------------------------|----------------------------|
-----------------------------|----------------------------|
-----------------------------|----------------------------|
--3------------2------------|----------------------------|



----------------------------|-----------------------------||
-----------------------------|----------------------------*||
-----------------------------|----------------------------*||
--0-------------------------|-----------------------------||



------------------------------------|----------------------------------|
--2-------2-------2-------2-------|--0-------0-------0-------0-------|
------------------------------------|----------------------------------|
------------------------------------|----------------------------------|



-----------------------------------|-----------------------------------|
-----------------------------------|-----------------------------------|
--3-------3-------3-------3-------|--2-------2-------2-------2-------|
-----------------------------------|-----------------------------------|



-----------------------------------|-----------------------------------|
-----------------------------------|-----------------------------------|
--0-------0-------0-------0-------|-----------------------------------|
-----------------------------------|--3-------3-------3-------3-------|



-----------------------------------|-----------------------------------|
-----------------------------------|-----------------------------------|
-----------------------------------|-----------------------------------|
--2-------2-------2-------2-------|--1-------1-------1-------1-------|



------------------------------|----------------------------||
------------------------------|----------------------------||
------------------------------|----------------------------||
---------0--------------------|----------------------------||
"Las escalas son como el abecedario, nadie es poeta por decir a, b, c, d, etc..." (Botafogo)
Avatar de l’usuari
pitonisa62
Primers acords
Primers acords
 
Entrades: 31
Membre des de: 26 des. 2007, 17:57
Ubicació: Barcelona
 

Torna a: Tablatures i Acords

Qui està connectat

Usuaris navegant en aquest fòrum: No hi ha cap usuari registrat i 2 visitants

cron