Sitting On The Dock Of The Bay - Tablatura - Facil

Aqui és on es penjen i comenten tablatures de guitarra i baix. Si teniu una tablatura o acords per compartir, posa les aquí! Llegiu les normes abans de penjar.

Sitting On The Dock Of The Bay - Tablatura - Facil

EntradaAutor: pitonisa62 » 12 març 2008, 13:49

Sitting On The Dock Of The Bay - Otis Redding

E||-------------------|-----------------------------|

B||-------------------|--3----3----3--3--3--3----3--|

G||-------------------|--2----2----2--2--2--2----2--|

D||-------------------|--0----0----0--0--0--0----0--|

A||-------------------|-----------------------------|

E||-------------------|-----------------------------|



-----------------------------|-----------------------------|

--3----3----3--3--3--3----3--|--3----3----3--3--3--3----3--|

--2----2----2--2--2--2----2--|--2----2----2--2--2--2----2--|

--0----0----0--0--0--0----0--|--0----0----0--0--0--0----0--|

-----------------------------|-----------------------------|

-----------------------------|-----------------------------|



-----------------------------|-----------------------------|

--3----3----3--3--3--3----3--|--3----3----3--3--3--3-------|

--2----2----2--2--2--2----2--|--2----2----2--2--2--2----3--|

--0----0----0--0--0--0----0--|--0----0----0--0--0--0----4--|

-----------------------------|--------------------------4--|

-----------------------------|-----------------------------|



------------------------------|-----------------------------|

------------------------------|--0----0-------0-------------|

-------3-----3--3--3--3----3--|--0----0-------0----3--2--1--|

-------4-----4--4--4--4----4--|--0----0-------0----4--3--2--|

-------4-----4--4--4--4----4--|--------------------4--3--2--|

------------------------------|-----------------------------|




-----------------------------|-----------------------------|

-----------------------------|--3----3----3--3--3--3-------|

-------1----1--1--1--1----1--|--2----2----2--2--2--2----3--|

-------2----2--2--2--2----2--|--0----0----0--0--0--0----4--|

-------2----2--2--2--2----2--|--------------------------4--|

-----------------------------|-----------------------------|



-------------------------------|-----------------------------||

-------------------------------|--0----0-------0-------------||

-------3----3----3--3--3----3--|--0----0-------0----3--2--1--||

-------4----4----4--4--4----4--|--0----0-------0----4--3--2--||

-------4----4----4--4--4----4--|--------------------4--3--2--||

-------------------------------|-----------------------------||


Repetir el mismo patrón de los 12 compases bluseros contínuamente
pitonisa62 l’ha editat per darrera vegada el dia: 16 març 2008, 13:34, en total s’ha editat 2 vegades.
"Las escalas son como el abecedario, nadie es poeta por decir a, b, c, d, etc..." (Botafogo)
Avatar de l’usuari
pitonisa62
Primers acords
Primers acords
 
Entrades: 31
Membre des de: 26 des. 2007, 17:57
Ubicació: Barcelona
 

Re: Sitting On The Dock Of The Bay - Tablatura - Facil

EntradaAutor: madkilly » 12 març 2008, 14:50

Te hecho un cable con esto de poner aquí las tablaturas, para que te quede regular.
En el post "Tablaturas: fer-les, llegir-les, alternatives" lo explico, pero escribo aquí lo mas importante:
Escribe la tablatura en el Bloc de Notas (que queda precioso, tan bien alineado), lo cortas y lo pegas aquí, pero poniendo
[pre] y
[/pre] al inicio y al final de cada grupo de 6 cuerdas.
Aunque en esta ventana lo veas desalineado, se publica bien.

Pruébalo.
Y yo pruebo la canción ésta.
Avatar de l’usuari
madkilly
He lligat amb la guitarra
He lligat amb la guitarra
 
Entrades: 498
Membre des de: 16 des. 2007, 17:08
Ubicació: Granollers
 

Re: Sitting On The Dock Of The Bay - Tablatura - Facil

EntradaAutor: pitonisa62 » 13 març 2008, 13:17

Joer madkilly, edito según tus instrucciones y mira el resultado...
Ays, mañana sigo, que tengo que irme a currar y esto requiere paciencia...
"Las escalas son como el abecedario, nadie es poeta por decir a, b, c, d, etc..." (Botafogo)
Avatar de l’usuari
pitonisa62
Primers acords
Primers acords
 
Entrades: 31
Membre des de: 26 des. 2007, 17:57
Ubicació: Barcelona
 

Re: Sitting On The Dock Of The Bay - Tablatura - Facil

EntradaAutor: pitonisa62 » 13 març 2008, 13:18

sa repetío, perdón
pitonisa62 l’ha editat per darrera vegada el dia: 14 març 2008, 02:34, en total s’ha editat 1 vegada.
"Las escalas son como el abecedario, nadie es poeta por decir a, b, c, d, etc..." (Botafogo)
Avatar de l’usuari
pitonisa62
Primers acords
Primers acords
 
Entrades: 31
Membre des de: 26 des. 2007, 17:57
Ubicació: Barcelona
 


Torna a: Tablatures i Acords

Qui està connectat

Usuaris navegant en aquest fòrum: No hi ha cap usuari registrat i 1 visitant

cron