Crazy - Tablatura - Facil

Aqui és on es penjen i comenten tablatures de guitarra i baix. Si teniu una tablatura o acords per compartir, posa les aquí! Llegiu les normes abans de penjar.

Crazy - Tablatura - Facil

EntradaAutor: pitonisa62 » 11 març 2008, 13:38

La estructura de cada compás es: primer y tercer tiempo silencio de negra, y tocaremos cada acorde de negra en el segundo y cuarto tiempo de compás. He tratado que me queden todos los acordes en las tres primeras cuerdas para que resulte más fácil de tocar. Está una octava por debajo del original para que se pueda tocar con una guitarra española. Si quieres subirla, pues quedará así...
18 18
18 18
19 19... etc...

E||-------------------|-------6------------6-------|
B||-------------------|-------6------------6-------|
G||-------------------|-------7------------7-------|
D||-------------------|----------------------------|
A||-------------------|----------------------------|
E||-------------------|----------------------------|

------6------------6-------|-------6-----------5--------|
-------8------------8-------|-------8-----------6--------|
-------8------------8-------|-------8-----------7--------|
----------------------------|----------------------------|
----------------------------|----------------------------|
----------------------------|----------------------------|

-------3------------5-------|-------6------------6-------|
-------4------------6-------|-------6------------6-------|
-------5------------5-------|-------7------------7-------|
----------------------------|----------------------------|
----------------------------|----------------------------|
----------------------------|----------------------------|

-------3-----------3-------|-------3------------3-------|
-------3-----------3-------|-------4------------4-------|
-------4-----------4-------|-------5------------5-------|
---------------------------|----------------------------|
---------------------------|----------------------------|
---------------------------|----------------------------|

-------3-----------3-------|-------5-----------5-------|
-------4-----------4-------|-------6-----------6-------|
-------5-----------5-------|-------5-----------5-------|
---------------------------|---------------------------|
---------------------------|---------------------------|
---------------------------|---------------------------|

-------5-----------5-------|-------6------------1-----------|
-------6-----------6-------|-------6------------3-----------|
-------5-----------5-------|-------7------------4-----------|
---------------------------|--------------------------------|
---------------------------|--------------------------------|
---------------------------|--------------------------------|

--------3----------5--------|-------6------------6-------|
--------4----------6--------|-------6------------6-------|
--------5----------6--------|-------7------------7-------|
----------------------------|----------------------------|
----------------------------|----------------------------|
----------------------------|----------------------------|

-------3-----------3-------|-------3------------3-------|
-------3-----------3-------|-------4------------4-------|
-------4-----------4-------|-------5------------5-------|
---------------------------|----------------------------|
---------------------------|----------------------------|
---------------------------|----------------------------|

-------3-----------3-------|-------5-----------5-------|
-------4-----------4-------|-------6-----------6-------|
-------5-----------5-------|-------5-----------5-------|
---------------------------|---------------------------|
---------------------------|---------------------------|
---------------------------|---------------------------|

-------5-----------5-----|-------6------------8--------|
-------6-----------6-----|-------6------------8--------|
-------5-----------5-----|-------7------------8--------|
-------------------------|-----------------------------|
-------------------------|-----------------------------|
-------------------------|-----------------------------|

--------9--------------10-------|-------11-----------11-------|
-------11--------------11-------|-------11-----------11-------|
-------12--------------10-------|-------12-----------12-------|
--------------------------------|-----------------------------|
--------------------------------|-----------------------------|
--------------------------------|-----------------------------|

-------11------------0--------|--------6------------6-------|
-------11-----------11--------|--------6------------6-------|
-------12-----------12--------|--------7------------7-------|
------------------------------|-----------------------------|
------------------------------|-----------------------------|
------------------------------|-----------------------------|

--------5----------7-----|-------6---------------6-------|
--------6----------7-----|-------8---------------8-------|
--------6----------8-----|-------9---------------9-------|
-------------------------|-------------------------------|
-------------------------|-------------------------------|
-------------------------|-------------------------------|

-------6-----------6-------|-------5-----------5-------|
-------8-----------8-------|-------6-----------6-------|
-------9-----------9-------|-------5-----------5-------|
---------------------------|---------------------------|
---------------------------|---------------------------|
---------------------------|---------------------------|

-------5----------5-----|-------6------------6-------|-------3-----------3-----|
-------6----------6-----|-------6------------6-------|-------3-----------3-----|
-------5----------5-----|-------7------------7-------|-------4-----------4-----|
------------------------|----------------------------|-------------------------|
------------------------|----------------------------|-------------------------|
------------------------|----------------------------|-------------------------|

-------3------------3-------|-------3-----------3-----|
-------4------------4-------|-------4-----------4-----|
-------5------------5-------|-------5-----------5-----|
----------------------------|-------------------------|
----------------------------|-------------------------|
----------------------------|-------------------------|

-------6-----------5------|-------3-----------1-----------|
-------8-----------6------|-------4-----------3-----------|
-------8-----------7------|-------5-----------4-----------|
--------------------------|-------------------------------|
--------------------------|-------------------------------|
--------------------------|-------------------------------|

En este punto sube medio tono.
Avatar de l’usuari
pitonisa62
Primers acords
Primers acords
 
Entrades: 31
Membre des de: 26 des. 2007, 17:57
Ubicació: Barcelona
 

Re: Crazy - Tablatura - Facil

EntradaAutor: madkilly » 11 març 2008, 15:26

S'agradece, pitonisa62.
Luego lo probaré. ¿Quién canta esto? ¿Es el Crazy de Aerosmith? Que luego me lo bajaré para probarlo.... perdón; quería decir que me compraré el disco, evidentemente.
¡Con lo mal vista que está la piratería! Menos mal que nadie lo hace, que sinó...
Avatar de l’usuari
madkilly
He lligat amb la guitarra
He lligat amb la guitarra
 
Entrades: 498
Membre des de: 16 des. 2007, 17:08
Ubicació: Granollers
 

Re: Crazy - Tablatura - Facil

EntradaAutor: pitonisa62 » 12 març 2008, 02:01

Crazy de Patsy Cline.
Se ve que tenemos gustos diferentes, reconozco que soy una clásica... ;-)
http://www.youtube.com/watch?v=axRodU_7430
Espero que te guste, y si no, pues ya te buscaré algo más cañero para tí.
Pide pide...
Por cierto, los que hicieron el video tienen delito, adornan con un "peazo cornamenta" a la pobre durante bastante tiempo (00:25 hasta 01:45) :twisted:
"Las escalas son como el abecedario, nadie es poeta por decir a, b, c, d, etc..." (Botafogo)
Avatar de l’usuari
pitonisa62
Primers acords
Primers acords
 
Entrades: 31
Membre des de: 26 des. 2007, 17:57
Ubicació: Barcelona
 

Re: Crazy - Tablatura - Facil

EntradaAutor: madkilly » 12 març 2008, 04:22

Ya la he escuchado. ¡Qué canción tan... tan... tan no-de-mi-estilo! Es la canción más no-de-mi-estilo que he oído en mucho tiempo.
Pero tampoco me hagas ningún caso, que yo no tengo criterio (y musical, tampoco). Tampoco me gusta la de Aerosmith, pa que veas...

Cúidate y sigue aportando, que el mundo está lleno de novatos frescos, pastando alegremente sin sospechar que van a ser educados musicalmente por cualquier profe al acecho.
Avatar de l’usuari
madkilly
He lligat amb la guitarra
He lligat amb la guitarra
 
Entrades: 498
Membre des de: 16 des. 2007, 17:08
Ubicació: Granollers
 

Re: Crazy - Tablatura - Facil

EntradaAutor: valls » 12 març 2008, 11:22

pitonisa62 ha escrit:Por cierto, los que hicieron el video tienen delito, adornan con un "peazo cornamenta" a la pobre durante bastante tiempo (00:25 hasta 01:45) :twisted:



Osti Pitonisa, he flipao con eso... ¿por qué lo habrán echo? (nngñeeee)
Fitxers adjunts
ngngngng.jpg
ngngngng.jpg (65.64 KIB) S’ha visualitzat 1733 vegades
Tocamelons of the world, d'on sou??
Avatar de l’usuari
valls
Administrador Antipàtic
Administrador Antipàtic
 
Entrades: 3936
Membre des de: 03 oct. 2007, 11:56
Ubicació: L.G. City
 

Re: Crazy - Tablatura - Facil

EntradaAutor: pitonisa62 » 12 març 2008, 14:06

Valls... te parece bonito esconder el quesito en la ratonera? jaja
Yo también estoy sorprendida por la poca vista del realizador, vaya pifia...
"Las escalas son como el abecedario, nadie es poeta por decir a, b, c, d, etc..." (Botafogo)
Avatar de l’usuari
pitonisa62
Primers acords
Primers acords
 
Entrades: 31
Membre des de: 26 des. 2007, 17:57
Ubicació: Barcelona
 


Torna a: Tablatures i Acords

Qui està connectat

Usuaris navegant en aquest fòrum: No hi ha cap usuari registrat i 1 visitant

cron