THE TURN OF FRIENDLY CARD (ALAN PARSON)

Aqui és on es penjen i comenten tablatures de guitarra i baix. Si teniu una tablatura o acords per compartir, posa les aquí! Llegiu les normes abans de penjar.

THE TURN OF FRIENDLY CARD (ALAN PARSON)

EntradaAutor: jomirmo » 02 feb. 2008, 22:23

Es la part on comença a cantar. Escolteu la canço i intenteu seguir la veu


------------------------------------------------------------------------------------------------------
-------------------------------------------------------------------------------------------------------
---7-9-10----9-7---------------------7-------------------------7------7------7---------------------
--------------------10----------7-10----10-8-7-------------7----7-7----7-7---------------X 2-----
--------------------------------------------------------8-10------------------------------------------
-------------------------------------------------------------------------------------------------------

--------------------------------------------------------------------------------
---------------------------------------------------------------8----------------
-----------------7-9-10-9-7-7--------------------------7-9-------------------
--------7-7-7-----------------------------------7-7-7-------------------------
--8-10-----------------------------------8-10---------------------------------
--------------------------------------------------------------------------------

----------------------------------------------------------------------------------------------------
----------------------------------------------------------------------------------------------------
-7-9-10-9-7----------------8-7---------------------------7-------7--------7---------------------
--------------10------7-10-------10-8-----------------7-----7-7-----7-7---------------X 2-----
--------------------------------------------------8-10---------------------------------------------
----------------------------------------------------------------------------------------------------

Al final hi ha un trosset de puntejat. Si algu l,interesa un altre dia el posso
jomirmo
Començo
Començo
 
Entrades: 17
Membre des de: 06 des. 2007, 21:24
 

Re: THE TURN OF FRIENDLY CARD (ALAN PARSON)

EntradaAutor: HAL 9000 » 02 feb. 2008, 22:26

Posa la dificultad de la tablatura home, que sino els novatos es petaràn la mà quan intentin tocarla :lol:
HAL 9000
Administrador Automàtic
Administrador Automàtic
 
Entrades: 2118
Membre des de: 11 set. 2001, 21:31
 

Re: THE TURN OF FRIENDLY CARD (ALAN PARSON)

EntradaAutor: jomirmo » 02 feb. 2008, 22:32

Aixo de la dificultat es mol relatiu. no?
Si enganxas la canço es molt facil. Aviam si algun profe pot possar el acords.
jomirmo
Començo
Començo
 
Entrades: 17
Membre des de: 06 des. 2007, 21:24
 


Torna a: Tablatures i Acords

Qui està connectat

Usuaris navegant en aquest fòrum: No hi ha cap usuari registrat i 2 visitants

cron