Dust in the Wind (Kansas) - Tablatura i Acords - Intermig

Aqui és on es penjen i comenten tablatures de guitarra i baix. Si teniu una tablatura o acords per compartir, posa les aquí! Llegiu les normes abans de penjar.

Dust in the Wind (Kansas) - Tablatura i Acords - Intermig

EntradaAutor: madkilly » 25 gen. 2008, 03:47

Canço molt resultona, però que necessita fer un arpegi senzill a una velocitat considerable.
El millor és escoltar-se moltes vegades la intro de la cançó fins a pillar el ritme exacte.
Abans de posar la tablatura, explico una mica quina és la idea de la cançó.

El que cal fer és aprendre's un arpegi (o com es digui en català), que es va repetint sense parar durant tota la cançó. Aquest arpegi és el següent:

---------------------
0-----------0-------
--------0--------0--
-----0--------0-----
0---------0---------
--------------------

Es fa una passada d'aquest arpegi per cada acord. Sense parar. I res més. Només canvia lleugermanet quan comença la lletra, però no hi entrarem.
Els acords de la intro són les següents, i en aquest ordre:

C - C7 - Cadd9 - C - Asus2 - Asus4 - Am - Asus2
Cadd9 - C - C7 - Cadd9 - Am - Asus2 - Asus4 - Am G/B

I llavors comença la lletra.
Cal fixar-se que són poques notes diferents, i totes són variants de C i de A. Aquestes variants concretes es poden trobar per internet (jo recomano sempre la pagina http://www.8notes.com/guitar_chord_chart/), però per ajudar, posaré quins trastes cal apretar per aquestes notes concretes que necessitem:

(EADGBe)
C (x3201x)
C7 (x3200x)
Cadd9 (x3203x)
Asus2 (x0220x)
Asus4 (x0223x)
Am (x0221x)
G/B (x2003x)


I, ajuntant tot el que hem explicat, la tablatura que en surt és...

e:------------------|------------------|-----------------|------------------|
B:-1---------1-----|-0---------0-----|-3---------0-----|-1---------1-----|
G:-------0-------0-|-------0-------0-|-------0-------0-|-------0-------0-|
D:-----2-------2---|-----2-------2---|-----2-------2---|-----2-------2---|
A:-3-------3-------|-3-------3-------|-3-------3-------|-3-------3-------|
E:------------------|------------------|------------------|-----------------|


e:------------------|------------------|-----------------|------------------|
B:-0---------0-----|-3---------3-----|-1---------1-----|-0---------0-----|
G:-------2-------2-|-------2-------2-|-------2-------2-|-------2-------2-|
D:-----2-------2---|-----2-------2---|-----2-------2---|-----2-------2---|
A:-0-------0-------|-0-------0-------|-0-------0-------|-0-------0-------|
E:------------------|------------------|------------------|-----------------|

e:------------------|------------------|------------------|-----------------|
B:-3---------3-----|-1---------1-----|-0---------0-----|-3---------3-----|
G:-------0-------0-|-------0-------0-|-------0-------0-|-------0-------0-|
D:-----2-------2---|-----2-------2---|-----2-------2---|-----2-------2---|
A:-3-------3-------|-3-------3-------|-3-------3-------|-3-------3-------|
E:------------------|------------------|------------------|------------------|


e:------------------|------------------|------------------|-----------------|
B:-1---------1-----|-0---------0-----|-3---------3-----|-1---------------|
G:-------2-------2-|-------2-------2-|-------2-------2-|-------2---------|
D:-----2-------2---|-----2-------2---|-----2-------2---|-----2-----------|
A:-0-------0-------|-0-------0-------|-0-------0-------|-0-------0---2---|
E:------------------|------------------|------------------|------------------|

El punt clau de la cançó és aprendre el ritme real de l'arpegi i fer-lo a una velocitat considerable. Els acords no canvien massa d'un a l'altre (només canvien de posició un o dos dits com a molt), de manera que el que recomano és anar repetint l'arpegi a l'aire fins que ja surti sense pensar. Llavors, t'aprens els acords i els fiques per sobre.
El resultat val la pena.

Aneu comentant els resultats o la dificultat que trobeu.
Avatar de l’usuari
madkilly
He lligat amb la guitarra
He lligat amb la guitarra
 
Entrades: 498
Membre des de: 16 des. 2007, 17:08
Ubicació: Granollers
 

Re: Dust in the Wind (Kansas) - Tablatura i Acords - Intermig

EntradaAutor: Albert » 25 gen. 2008, 13:45

Iep mestre madkilli; la tablatures si les fas amb el notepad i les poses entre [pre][/pre] et quedaran millor.
"Si tocas un Sim7 rasgando hacia abajo, diagonal alante y alante rapido y con fuerza y le das a puño fuerte saldra una bola de fuego". Comentari anònim d'aquest video.

Tocamela's Webmonster
Tocamela's Backstage|Disseny Web|Tocamela
Avatar de l’usuari
Albert
Professor invisible
Professor invisible
 
Entrades: 3405
Membre des de: 08 oct. 2007, 15:41
 

Re: Dust in the Wind (Kansas) - Tablatura i Acords - Intermig

EntradaAutor: Albert » 25 gen. 2008, 13:52

Exemple:

e:-----------------|-----------------|-----------------|-----------------|
B:-1---------1-----|-0---------0-----|-3---------3-----|-1---------------|
G:-------2-------2-|-------2-------2-|-------2-------2-|-------2---------|
D:-----2-------2---|-----2-------2---|-----2-------2---|-----2-----------|
A:-0-------0-------|-0-------0-------|-0-------0-------|-0-------0---2---|
E:-----------------|-----------------|-----------------|-----------------|


Que seria això:
Codi: Selecciona’l tots
[pre]
e:-----------------|-----------------|-----------------|-----------------|
B:-1---------1-----|-0---------0-----|-3---------3-----|-1---------------|
G:-------2-------2-|-------2-------2-|-------2-------2-|-------2---------|
D:-----2-------2---|-----2-------2---|-----2-------2---|-----2-----------|
A:-0-------0-------|-0-------0-------|-0-------0-------|-0-------0---2---|
E:-----------------|-----------------|-----------------|-----------------|[/pre]



També podria canviar la font del fòrum de tablatures perquè es veies bé sense fer tot això; però les que estàn ara posades no es veurien correctament.
"Si tocas un Sim7 rasgando hacia abajo, diagonal alante y alante rapido y con fuerza y le das a puño fuerte saldra una bola de fuego". Comentari anònim d'aquest video.

Tocamela's Webmonster
Tocamela's Backstage|Disseny Web|Tocamela
Avatar de l’usuari
Albert
Professor invisible
Professor invisible
 
Entrades: 3405
Membre des de: 08 oct. 2007, 15:41
 

Re: Dust in the Wind (Kansas) - Tablatura i Acords - Intermig

EntradaAutor: madkilly » 25 gen. 2008, 14:12

Ok, thanks.
Ho faré. Aquesta concretament ha quedat una mica malament perquè ja la tenia fet en un Word.
La resta les estic fent directament aquí, i ja miro que quedi bé. Igualment, posaré els tags, a veure si queda millor.
Avatar de l’usuari
madkilly
He lligat amb la guitarra
He lligat amb la guitarra
 
Entrades: 498
Membre des de: 16 des. 2007, 17:08
Ubicació: Granollers
 

Re: Dust in the Wind (Kansas) - Tablatura i Acords - Intermig

EntradaAutor: mentenferma_8 » 02 feb. 2008, 16:15

aquesta es l'unica canso que pdoriem dir que em surt xDD
i esque l'he vist aqui i dic ostia! ejejeje
Tio..tio..tio...Eres más heavy que el vikingo de los ManOwar en la moto del Painkiller bajo una lluvia de hachas esquivando gotas de sangre. ¬¬
Avatar de l’usuari
mentenferma_8
Primers acords
Primers acords
 
Entrades: 35
Membre des de: 14 gen. 2008, 20:57
 


Torna a: Tablatures i Acords

Qui està connectat

Usuaris navegant en aquest fòrum: No hi ha cap usuari registrat i 1 visitant

cron