HEY JUDE (BEATLES) TABLATURA MOLT FACIL

Aqui és on es penjen i comenten tablatures de guitarra i baix. Si teniu una tablatura o acords per compartir, posa les aquí! Llegiu les normes abans de penjar.

HEY JUDE (BEATLES) TABLATURA MOLT FACIL

EntradaAutor: jomirmo » 24 gen. 2008, 23:22

aquesta es facil i coneguda: HEY JUDE Aneu poc a poc fins agafar la tonada

3/5, 4/7 -- 4/7, 3/5, 3/7,4/5 -- 4/5,4/7,4/8,2/6 -- 2/6,2/5,3/5,3/7,3/5,4/8,4/7 --
3/5,3/7,3/7 -- 3/7,2/8,2/6,2/5,2/6,3/7,3/5 -- 5/8,4/5,4/7,3/7,3/5 --3/5,4/8,4/7- 5/7,5/8

2/6,3/7,3/7,3/5,3/5,4/8,3/7-- 2/6,3/7 -2/6,4/8-- 2/6,3/7,3/5,4/8,3/5 --3/7,3/5,4/8,4/7,4/5,5/8
3/5,3/7,3/8,3/8-- 2/5,2/6,2/8,2/8 i tornar al principi....
Ja em direu si va be
jomirmo
Començo
Començo
 
Entrades: 17
Membre des de: 06 des. 2007, 21:24
 

Re: HEY JUDE (BEATLES) TABLATURA MOLT FACIL

EntradaAutor: jomirmo » 03 feb. 2008, 13:56

Al final de la canso quand acaban la lletra fant algo aixi:
naa na na nananaa na na na naaaa hey jude repetin varies vegadas

--------------------------------------------------------------------------------------------------------------
-----------------------------8-6-8-6-----------8-6-8-6-----------------------------------------------------
-----------------5---------------------------------------------------7-------5------------------------------
-----------7-------------------------------------------------------------------------------------------------
-----8-------------------------------------------------------------------------------------------------------
-------------------------------------------------------------------------------------------------------------
jomirmo
Començo
Començo
 
Entrades: 17
Membre des de: 06 des. 2007, 21:24
 

Re: HEY JUDE (BEATLES) TABLATURA MOLT FACIL

EntradaAutor: madkilly » 11 feb. 2008, 23:56

Poso la meva versió, ni millor ni pitjor, diferent.
Correspon a les dues primeres línies de la versió de jomirmo.

Les barres no indiquen compassons, sinó trossos sencers de la cançó.

-----------------|-----------1--|-1-0-------------|--------------3-1-0-1-------
-1--------1-3----|--------------|-----1-3-1-------|----1-3-3---3---------3-1---
---2----2-----0--|----0-2-3-----|-----------3-2---|----------------------------
-----------------|--------------|-----------------|----------------------------
-----------------|--------------|-----------------|----------------------------
-----------------|--------------|-----------------|----------------------------


------------|-----------------------|
-------3-1--|---1-------------------|
---0-2------|-----3-2---------------|
-3----------|---------2----2-3-3----|
------------|-----------------------|
------------|-----------------------|


Hauria de ser el mateix.
Per qualsevol comentari...
Avatar de l’usuari
madkilly
He lligat amb la guitarra
He lligat amb la guitarra
 
Entrades: 498
Membre des de: 16 des. 2007, 17:08
Ubicació: Granollers
 

Re: HEY JUDE (BEATLES) TABLATURA MOLT FACIL

EntradaAutor: apofis84 » 13 feb. 2008, 23:20

Perdoneu per trencar el fil, pero sóc molt novato amb el mon de la guitarra. Tinc un dubte sobre el q poseu, aquests números i tot aixo però no entenc el significat. He estat mirant per tot el forum i apartats pero no eh trobat l'explicació, putser me colat, nu se.

Agraïria 4 exlicacions o algun link on em expliquin el seu significat.

Moltes gracies.

Roger.
apofis84
Agafo la guitarra al revés
Agafo la guitarra al revés
 
Entrades: 8
Membre des de: 10 feb. 2008, 23:20
 

Re: HEY JUDE (BEATLES) TABLATURA MOLT FACIL

EntradaAutor: madkilly » 13 feb. 2008, 23:52

Ho faig jo mateix, però qualsevol pot ampliar lo que digui.

Pots trobar les cançons de dues maneres.
Una és amb les 6 línies dibuixades, i amb números a sobre. Aixó són les tablatures. Representen les 6 cordes d'una guitarra, on la de dalt de tot representa la corda més aguda (la 1a.) i la última és la més greu (la 6a.)
Els números indiquen quin traste cal tenir apretat al tocar la corda. Si el número és un 0, es toca la corda a l'aire sense apretar cap traste. És molt fàcil d'acostumar-se.

L'altra opció és completament numèrica. Cada nota es representa de la forma X/Y, on X diu quina corda toquem, i Y diu amb quin traste apretat. El 0 torna a indicar que la corda es toca a l'aire, sense apretar res.

Hi ha un fil, "Discusió sobre Tablatures" en que estem discutint quina de les dues formes va millor, però de moment la gent va penjant els dos tipus indistintament.

Espero haver-me fet entendre.
A cuidar-se.
Avatar de l’usuari
madkilly
He lligat amb la guitarra
He lligat amb la guitarra
 
Entrades: 498
Membre des de: 16 des. 2007, 17:08
Ubicació: Granollers
 

Re: HEY JUDE (BEATLES) TABLATURA MOLT FACIL

EntradaAutor: HAL 9000 » 14 feb. 2008, 01:56

Estaria bé un fil on s'ensenyés a llegir tablatures, acords, etc...

Ho deixo en mans del moderateur ;)

Si ja existeix, ignoreu aquest post.

Vai mamat.
HAL 9000
Administrador Automàtic
Administrador Automàtic
 
Entrades: 2118
Membre des de: 11 set. 2001, 21:31
 

Re: HEY JUDE (BEATLES) TABLATURA MOLT FACIL

EntradaAutor: madkilly » 14 feb. 2008, 10:56

Fins al finde postejaré poc o res (comparat amb lo que he postejat aquesta setmana, que m'he aburrit una barbaritat perquè se m'han acabat les bales del rifle francotirador).
Si tinc temps, obriré un fil per llegir tablatures entre avui i demà. Tornaré a posar lo que he posat aquí dalt, i potser alguna explicació sobre acords en tablatura, mudes,... I de pas també repetiré com fer-les amb el notepad.

Abans de fer-ho, pregunto: els que penjeu cançons amb el sistema numèric (X/Y), si dues notes sonen alhora, com ho feu? :?:
Avatar de l’usuari
madkilly
He lligat amb la guitarra
He lligat amb la guitarra
 
Entrades: 498
Membre des de: 16 des. 2007, 17:08
Ubicació: Granollers
 

Re: HEY JUDE (BEATLES) TABLATURA MOLT FACIL

EntradaAutor: apofis84 » 14 feb. 2008, 20:53

Merci madkilly x l'explicació. Aniré provant a veure q tal jijiji
apofis84
Agafo la guitarra al revés
Agafo la guitarra al revés
 
Entrades: 8
Membre des de: 10 feb. 2008, 23:20
 


Torna a: Tablatures i Acords

Qui està connectat

Usuaris navegant en aquest fòrum: No hi ha cap usuari registrat i 2 visitants

cron