Intro Soldadito Marinero (Fito) - Tablatura - Novell

Aqui és on es penjen i comenten tablatures de guitarra i baix. Si teniu una tablatura o acords per compartir, posa les aquí! Llegiu les normes abans de penjar.

Intro Soldadito Marinero (Fito) - Tablatura - Novell

EntradaAutor: madkilly » 24 gen. 2008, 01:29

Va nens, que aquesta és molt fàcil i molt maca. Amb les primeres 5 notes ja tothom sap quina estás tocant i es giren per escoltar-te (i llavors és quan la cagues, però això ja és una altra història...). Algú va posar aquesta cançó com a cançó per lligar.... quina gent, eh? Hi ha cada depravat suelto que....

Poso la tablatura de la intro. Increïblement fàcil. Sobre la tablatura indico quina nota hauries d'estar fent amb els dits (més o menos, que sempre hi ha algún dit que s'ha de sortir de la formació). Jo ho faig d'aquesta manera:

Mim<<<<Sol<<<<<Re<<<<<<<<(¿?)<<<<<<<<<<<<<<<<La<<<
---------------2*-------------2*------------------------------------
---------------2*-------------3*------------------------------2*----
---------------0*-------------2*------------------------------2*----
-2--4--2--0--0*--------0----0*----0--4--7*----0-4--4-7---2*----
---------------2*-----0---------------------------------------------
---------------3*---------------------------------------------------


<Sol<<<<<<<<<<<<<<Re<<<<<<(?¿)<<<<<<<<<<<<<<Re
------------------------------------------------------------2*---
-------------------3--------3------------------------------3*---
-----------------0---0--------2-2*------------------------2*----
------------------------0*-----------0-4-7*---2*-4-2-0--0*----
---2-4-2-0------------------------------------------------------
-------------3*---------------------------------------------------


En dos moments, he posat com a notes (?¿) perquè, tot i que es deu poder fer amb algun acord concret, jo poso la mà com si estigués fent quintes i vas jugant amb l'índex i el petit.
A partir d'aquí comença la lletra, i ja es toca amb acords. Els tinc, però espero a veure si algú s'anima amb la intro i demana més. Apart, em sé els acords, però no he conseguit trobar cap ritme adequat per tocar-los, i aquí és on voldria que algú donés un cop de mà.

"¿Que venda una de mis guitarras? ¿Le hubieras pedido a Picasso que vendiera una de sus guitarras?"
Avatar de l’usuari
madkilly
He lligat amb la guitarra
He lligat amb la guitarra
 
Entrades: 498
Membre des de: 16 des. 2007, 17:08
Ubicació: Granollers
 

Torna a: Tablatures i Acords

Qui està connectat

Usuaris navegant en aquest fòrum: No hi ha cap usuari registrat i 5 visitants

cron