Tablatura roda TAPING

Aqui és on es penjen i comenten tablatures de guitarra i baix. Si teniu una tablatura o acords per compartir, posa les aquí! Llegiu les normes abans de penjar.

Tablatura roda TAPING

EntradaAutor: Eric » 14 gen. 2008, 20:08

Als usuaris que demanen la tablatura del video del Taping (exemple tipus Van Halen).
Fins que no arribi el solo/tap no fareu servir la corda nº1 (Mi)
PM = palm mute (tapeu el sò de les cordes fent servir el palmell de la mà tal i com s´explica aqui http://www.tocamela.cat/thrash-metal/. Per dubtes, aqui estem. Sort!


corda nº 6 --0---0------------------------------------------
corda nº 5 --2---2----------7----5----------5--5--5--4--3
corda nº 4 --2---2----------9----7-------------------------
corda nº 3 --0---0----------9----7-------------------------
corda nº 2 --------------------------------------------------

--0---0------------------------------------------
--2---2----------7----5-------------------------
--2---2----------9----7--------------4--4--5--4
--0---0----------9----7-------------------------

--0---0------------------------------------------
--2---2----------7----5--------------5--4--3---
--2---2----------9----7-------------------------
--0---0----------9----7-------------------------
--------------------------------------------------

--0---0------------------------------------------
--2---2----------7----5-------------------------
--2---2----------9----7--------------4--4--5--4
--0---0----------9----7-------------------------

-----------(pm)----------------5--3--5--5---------------------
--3----3-3-3-3-3-3------------7--5--7--5------------2-2-5-7
--5----5-5-5-5-5-5------------7--5--7--7---------------------
--5----5-5-5-5-5-5------------7------------------------------- canvi
Bien está, lo que está Roswell.
Avatar de l’usuari
Eric
Mestre of Metal
Mestre of Metal
 
Entrades: 169
Membre des de: 29 oct. 2007, 13:15
Ubicació: Kpax
 

Re: Tablatura roda TAPING

EntradaAutor: madkilly » 15 abr. 2008, 18:37

Master of the Xapa o qualsevol que ho hagi provat:
Mira si em pots aclarar una cosa (...que ja que em vaig comprar una elèctrica per poder tocar aquesta roda, jo la toco per collons!).
En la tablatura que vas penjar (hi ha una pregunta al final):

.....Em             E    D
e|--------------------------------------------------
B|--------------------------------------------------
G|---0---0----------9----7--------------------------
D|---2---2----------9----7--------------------------
A|---2---2----------7----5----------5--5--5--4--3---
E|---0---0------------------------------------------

Em E D
e|--------------------------------------------------
B|--------------------------------------------------
G|---0---0----------9----7--------------------------
D|---2---2----------9----7----------4--4--5--4------
A|---2---2----------7----5--------------------------
E|---0---0------------------------------------------

Em E D
e|--------------------------------------------------
B|--------------------------------------------------
G|---0---0----------9----7--------------------------
D|---2---2----------9----7--------------------------
A|---2---2----------7----5----------5--4--3---------
E|---0---0------------------------------------------

Em E D
e|--------------------------------------------------
B|--------------------------------------------------
G|---0---0----------9----7--------------------------
D|---2---2----------9----7----------4--4--5--4------
A|---2---2----------7----5--------------------------
E|---0---0------------------------------------------

C A A G A D/G
e|---------------------------------------------------------------
B|---------------------------------------------------------------
G|---5----5-5-5-5-5-5----------7--7------------------------------
D|---5----5-5-5-5-5-5----------7--7--5--7--7---------------------
A|---3----3-3-3-3-3-3----------7--7--5--7--5------------2-2-5-7--
E|------------(pm)-------------5--5--3--5--5---------------------

..calculo que aquest final (2-2-5-7) és el final després de fer les dues voltes. Però no aconsegueixo treure el que fas entre la primera volta i la segona en el vídeo, i em sembla que no és això (igual que el 5-4-3 de la tercera tablatura, que em sembla que tampoc és això). Vaig bé? Algú ho ha provat i li surt?
Ara és quan la resposta és "Està bé", i jo quedo malament.

La tocaré; ho juro. I quan ho faci posaré cara de pasota i diré: "Això? Bah, no és res. És facilíssim. Ho vaig improvitzar un dia perquè m'aburria". Com ha de ser.
Avatar de l’usuari
madkilly
He lligat amb la guitarra
He lligat amb la guitarra
 
Entrades: 498
Membre des de: 16 des. 2007, 17:08
Ubicació: Granollers
 


Torna a: Tablatures i Acords

Qui està connectat

Usuaris navegant en aquest fòrum: No hi ha cap usuari registrat i 1 visitant

cron