Trucs/tècniques per a diferents nivells de guitarra

Fòrum per a l'intercanvi de coneixements de teoria musical. Si vols parlar d'acords, progressions, escales, o tens algun truc per als guitarristes, aquest és el teu fòrum.

Trucs/tècniques per a diferents nivells de guitarra

EntradaAutor: 3nr1c » 17 gen. 2011, 23:49

Bueno aqui ve aquest megapost que espero que li serveixi a bastanta gent a millorar en les tecniques que ja conegui i a aprendre'n d'altres.
Ja que inclouré bastants tipus de trucs, no oblidaré la gent que comença, però sempre amb uns mínims...

Bé, començo ja.


Com aprendre a fer bé la sageta

Per a principiants... I no tant. Si ja heu començat a tocar alguna cançó amb una roda d'acords dificileta, segurament hi teniu algun acord amb sageta. Tot en aquesta vida és paciència, així que prepareu-vos...

El primer que pots fer si no tens ni idea de sageta és anar al traste cinc (5) i fer una sageta amb les tres primeres cordes:

e|--5--
B|--5--
G|--5--
D|----
A|----
E|----


Practica molt això fins que no es senti trastejat (notes netes). Un consell: per els que toqueu elèctrica, apagueu tota distorsió, acoplament i efecte :cool:

Quan ja no et trasteji CAP corda, fes una cosa semblant, però aquest cop amb dos dits:

e|--5--
B|--6--
G|--5--
D|----
A|----
E|----


És a dir, la sageta amb el primer dit i amb el segon el 6è trast de la segona corda. Si t'hi fixes, això és un fa. Practica bé fins que no et sonin trastejos. Quan ho facis perfecte :metal: :metal: , fas aquesta posició al traste 2:

e|--2--
B|--3--
G|--2--
D|----
A|----
E|----


I això és un re. Si et surt bé això, tens la meitat feta. Ara, al mateix traste, puja la sageta una corda:

e|--2--
B|--2--
G|--2--
D|--2--
A|----
E|----


Això és un La6. Quan ho dominis, posa el segon dit, primera corda, traste 3:

e|--3--
B|--2--
G|--2--
D|--2--
A|----
E|----


El La7!!! :solo: :solo: :solo:
Ja et falta poc per dominar-ho :lol: :lol:

Ara, puja la sageta una altra corda. Això no és res, és una pràctica per al Si.

e|--2--
B|--2--
G|--2--
D|--2--
A|--2--
E|----


Aquesta et costarà, al principi és MOOLT xunga. Però tot és posars-hi... Un truc, si no et surt, practica-ho un parell o tres de trastes més amunt, ja que a partir del traste 3-4 la tensió de les cordes és més fluixa, després baixa de trastes.

Si tens això... Prova un Re al cinquè traste:

e|--5--
B|--7--
G|--7--
D|--7--
A|--5--
E|----


Paciència, però se suposa que ja saps fer una sageta mitjanament :cool: :cool:

Després, baixa-ho un traste (Do#), un altre (Do) i un altre més (Si) i ja hauràs fet el teu primer Si!!! :metal: :metal: :metal:

Per al Fa és més xungo. Has de fer una sageta sencera al traste 5 (per lo de la tensió de les cordes) i practicar fins que cap nota et soni muda. Després, comença a posar el segon dit:

e|--5--
B|--5--
G|--6--
D|--5--
A|--5--
E|--5--


Després el tercer i el quart:

e|--5--
B|--5--
G|--6--
D|--7--
A|--7--
E|--5--


I quan ja sonin totes les notes a la perfecció, baixa un traste (Sol#), un altre (Sol), un altre més (Fa#) i finalment, fes-ho al traste 1 :solo: :solo: . Ja domines la sajeta!!!


Pull-offs i hammers

En qualsevol solo, li donen molta qualitat al so, és menys agresiu. També en riffs, interludis, etc :cool: :cool: . Us explicaré com aprendre aquestes dues tècniques amb un parell de cançons, us sembla?

Si tens una elèctrica:
Us agrada AC/DC? Espero que sí, per aprendre a fer això utilitzarem una part d'una cançó seva HIPERCONEGUDA: Thunderstruck :metal: :metal: .

Si heu vist el videoclip, l'Angus toca amb una sola mà el conegudíssim riff de la cançó. És a base de hammers i pull'ffs. Per començar, el millor és seguir aquesta tablatura:

e|------------------------------------------------------------------------
B|-0h4p0h4p0h4p0h4p0h4p0h4p0h4p0h4p0h4p0h4p0h4p0h4p0--
G|------------------------------------------------------------------------
D|------------------------------------------------------------------------
A|------------------------------------------------------------------------
E|------------------------------------------------------------------------


Això és bastant simplon, però ús anirà bé. Es tracta de tocar la segona corda, fer força amb qualsevol dit (recomano el segon, és el que té més força) sobre el quart traste, i pinçar cap abaix perquè soni la corda a l'aire (repetir). Després introdueixes una altra nota:

-------|--------------------------------|--------------------------------|
-----0h|4p0h7p0h4p0h7p0h4p0h7p0h4p0h7p0h|4p0h7p0h4p0h7p0h4p0h7p0h4p0h7p0h|
-------|--------------------------------|--------------------------------|
-------|--------------------------------|--------------------------------|
-------|--------------------------------|--------------------------------|
-------|--------------------------------|--------------------------------|


I així vas practicant (a internet està el riff sencer). És una tècnica que al principi costa, per falta de força als dits. Ojo: si pots dominar això, podràs dominar el legato (després l'explicaré).

Si tens una acústica/espanyola:

Hiper-conegudíssim lick del Gran Vals, també anomenat el nokia tune. Us poso la tablatura en versió legato perque veieu com va la cosa:

e|12p10-----|9p7-------|7p5-------|
B|-------9--|----------|-------5--|
G|----11----|-----7h9--|----6-----|
D|----------|----------|----------|
A|----------|----------|----------|7*
E|----------|----------|----------|


El mateix que he dit abans, fer pressió als hammer's i estirar als pull-offs.

OJO amb els pull-offs que no són a la primera corda, que us poden sonar altres cordes alhora!!! Per evitar-ho, aprendre a mutejar bé la guitarra és important.
Per evitar-ho al thunderstruck, és fàcil, mà dreta tapant les cordes 3,4,5,6 i va que xuta :cool:

Més exercicis de Hammer's:

E:---------------------------------------------------------------
B:---------------------------------------------------------------
G:---5h7--7h9--9h10----5h7--7h9--9h10----5h7--7h9--9h10-
D:---------------------------------------------------------------
A:---------------------------------------------------------------
E:---------------------------------------------------------------


Més exercicis de Pulls':

E:---15p14p12—-15p14p12—-15p14p12—-17p15p14—17p15p14—17p15p14--
B:--------------------------------------------------------------------------------
G:--------------------------------------------------------------------------------
D:--------------------------------------------------------------------------------
A:--------------------------------------------------------------------------------
E:--------------------------------------------------------------------------------

E:---19p17p15—-19p17p15—-19p17p15-----------------------
B:---------------------------------------------------------------
G:---------------------------------------------------------------
D:---------------------------------------------------------------
A:---------------------------------------------------------------
E:---------------------------------------------------------------



Alternate picking

Es tracta de tocar fent moure la pua cap a dalt i cap a baix, ALTERNATIVAMENT, de manera que mai fas el mateix moviment dos cops seguits.

En tablatures, veureu representat l'alternate amb una V (si el moviment és cap a baix) i amb un ^ (si el moviment és cap a dalt. Però això és una mica cadascú... Al final surt sol :cool:


Economy picking

L'economy picking, per entendre'ns, és una mescla de alternate i de sweep. Vindria a ser una manera de lligar canvis de corda: quan has de fer vàries notes sobre una corda, toques amb la pua-contrapua (alternate), i per passar d'una corda a una altra, vas en el sentit del canvi.

És a dir, si has tocat tres notes en la tercera corda, i després has de passar a la segona, l'ultima nota de la tercera la tocaràs cap avall, per poder anar directament a la segona, i a la inversa (això vindria a ser el sweep).


El vibrato

Hi ha dos maneres de fer-lo... La primera és fent petits smears (sense arribar a pujar ni tan sols un quart de to), i és més activa.

L'altra manera és balancejant el dit sobre la corda, com si ho féssis en un violí o en un altre instrument de corda. No es nota tan, però li dona molt més feeling a la nota.

La manera de tocar-ho dependrà del teu estil... a practicar!! :cool: :cool:


String Skipping

Consisteix a tocar un solo, un riff, etc... Saltan-te cordes, de manera que crees intervals de notes més grans. Un exemple fàcil és el Sweet Child o mine... tot i que normalment l'skipping s'utilitza bastant en arpegis o trossets d'escala.


Els bendings

És una tècnica que també es important de dominar per a solos. Si busqueu un bon solo per practicar els pull-offs, hammers i bendings, mireu-vos el d'Hotel California.

Un truc pels bends: MAI els feu amb el primer dit. Sempre el segon o el tercer, per poder mutejar les altres cordes amb el dit índex (obligatori).

Poca cosa més... s'aprenen ràpid.

Una altra cosa: en les electriques i acústiques, s'arriba més ràpidament a notes superiors que no pas amb la clàssica, així que no us passeu... No vull ser responsable d'un munt de cordes trencades :P :P

Per practicar bendings:

E:-----------12---------------15--------------15-17b19---17p15--------15---
B:---------12---15b17-15b17---15b17----17---------------------17p15---17
G:--14b16---------------------------------------------------------------------
D:-----------------------------------------------------------------------------
A:-----------------------------------------------------------------------------
E:-----------------------------------------------------------------------------


Slide's

Slide és simplement, arrossegar un dit sobre una corda per aconseguir una nota més aguda/greu. No té massa secrets, excepte...

Atenció guitarres amb cordes metàliques (això també inclou les tres ultimes cordes de les clàssiques): No us passeu amb la força, si cal tornar a tocar la nota quan hi arribes, donçs la toques, però és molt fàcil fer-se talls i cremar-se, i fot bastant.

En la elèctrica, si no tens un amplificador al qual li puguis posar molta ganància (o que la pròpia guitarra tingui poc sustain), toca prou fort la primera nota perquè s'arribi a sonar l'altra, sobretot si són notes allunyades. Un altre consell per electriques: pastilles de màstil... sonen més fort.


Smears

El smear consisteix en fer un petit ben, sense arribar al to superior. Està indicat per una 'b' sense cap número després.

Recomanació: apren a fer smears abans que bens per acostumar-t'hi...


Ghost notes

Les ghost notes són notes que s'intueixen però no s'escolten. Es tracta de posar el dit a qualsevol traste, fent que gairebé no s'escolti la nota. Es representen entre parèntesi:

E:--------------------
B:--------------3-----
G:--------------2-----
D:--------------0-----
A:---6--(0)--6--------
E:--------------------



Tapping

Es tracta de tocar amb hammer ons i pull-offs amb les dues mans. És una tècnica molt guai d'aprendre però difícil d'explicar, així que us ho poso en vídeo:




Legatto

Es tracta de picar el mínim de notes sobre la mateixa corda, anant sempre a base de pull-offs, hammer-ons i slides. Requereix molt domini d'aquestes tres tècniques, i en practicar molt la força als dits. Aquí teniu unes quantes pràctiques de legatto:

E:-8p5h8p5h8p5h8p5---7p5h7p5h7p5h7p5---6p5h6p5h6p5h6p5----
B:---------------------------------------------------------------------
G:---------------------------------------------------------------------
D:---------------------------------------------------------------------
A:---------------------------------------------------------------------
E:---------------------------------------------------------------------

E:-8p5h7p5h6p5h7p5-------------------------------------------
B:---------------------------------------------------------------
G:---------------------------------------------------------------
D:---------------------------------------------------------------
A:---------------------------------------------------------------
E:---------------------------------------------------------------



Sweep picking

Em limitaria a posar el vídeo d'en Valls que està fantàstic, però us posaré un parell de recomanacions:

Mutejar molt la guitarra, els sorollets raros son molt molestos.

Practicar molt els moviments de la mà esquerra, al principi costa molt... :???: :???:

Aquí teniu exercicis de sweep en cinc cordes:

http://bloguitar.es/ejercicios/sweep-picking-ejercicios/sweep-picking-en-5-cuerdas

I aquí el megavideo d'en Valls:

http://www.tocamela.cat/video/sweep-picking/ :solo: :solo: :solo: :metal: :metal: :metal:


________________________________________________________________________________

Fins aquí el megapost, recorda, la pràctica i la paciència són la base. No intentis dominar totes les tècniques de cop, t'agafarà algo :shock: :shock: , intenta dominar primer les que consideris més senzilles :cool: :cool:

Salut i...

TOCAMELA!!!
3nr1c l’ha editat per darrera vegada el dia: 18 gen. 2011, 23:56, en total s’ha editat 2 vegades.
Avatar de l’usuari
3nr1c
Primers acords
Primers acords
 
Entrades: 29
Membre des de: 21 juny 2010, 16:00
 

Re: Trucs/tècniques per a diferents nivells de guitarra

EntradaAutor: Albert » 18 gen. 2011, 11:48

:brutal: :brutal: :brutal: :brutal: :brutal:
"Si tocas un Sim7 rasgando hacia abajo, diagonal alante y alante rapido y con fuerza y le das a puño fuerte saldra una bola de fuego". Comentari anònim d'aquest video.

Tocamela's Webmonster
Tocamela's Backstage|Disseny Web|Tocamela
Avatar de l’usuari
Albert
Professor invisible
Professor invisible
 
Entrades: 3405
Membre des de: 08 oct. 2007, 15:41
 

Re: Trucs/tècniques per a diferents nivells de guitarra

EntradaAutor: valls » 18 gen. 2011, 17:39

:brutal: :brutal:

Així d'elèctrica només hi trobo a faltar alternate picking, economy picking, vibrato, string skipping... i alguna altra que em dec deixar segur :P

però genial post 3nr1c :cool:
Tocamelons of the world, d'on sou??
Avatar de l’usuari
valls
Administrador Antipàtic
Administrador Antipàtic
 
Entrades: 3936
Membre des de: 03 oct. 2007, 11:56
Ubicació: L.G. City
 

Re: Trucs/tècniques per a diferents nivells de guitarra

EntradaAutor: 3nr1c » 18 gen. 2011, 23:33

valls ha escrit::brutal: :brutal:

Així d'elèctrica només hi trobo a faltar alternate picking, economy picking, vibrato, string skipping... i alguna altra que em dec deixar segur :P

però genial post 3nr1c :cool:


Gràcies :oops: :oops: ... Reconec que m'ho he currat bastant. De fet, anava a posar que escrivíssiu les tècniques que trobaveu a faltar, però te m'has adelantat... xD xD


Actualitzat: Ja he posat aquestes que m'has dit!!
Avatar de l’usuari
3nr1c
Primers acords
Primers acords
 
Entrades: 29
Membre des de: 21 juny 2010, 16:00
 


Torna a: Lliçons i Teoria

Qui està connectat

Usuaris navegant en aquest fòrum: No hi ha cap usuari registrat i 1 visitant