PLATS BRUTS- Quimi Portet

Si vols que els professors del Tocamela t'ensenyin a tocar els teus temes preferits, entra aqui i deixa la teva petició. Els temes més sol·licitats seràn els que es gravaràn!
Regles del fòrum
Abans de demanar un tema, feu servir el buscador per veure si algú ja l'ha demanat abans i feu la petició allà. Els fils que tinguin més respostes amb petició són els que tenen més possibilitats de fer-se. NORMES DEL FÒRUM DE PETICIONS

PLATS BRUTS- Quimi Portet

EntradaAutor: Kabre » 15 set. 2010, 15:48

bones tocamelons,
com ja heu vist, m’agradaria que ensenyessiu a tocar aquesta cançó que donava la intro a la famosa sèrie de plats bruts :brutal: , una bestial comèdia català, que la majoria de gent del país em vist alguna vegada o una altra, (sempre hi ha gent que sa vist els capítols un munt de vegades XD)

es una canso del Quimi Portet, ex del ultimo de la fila. Ara toca en solitari i te alguna cançó que esta força b

e intentat penjar un vídeo de la cançó amb la intro de la sèrie però no ni e sapigut trobar cap, així que os deixo un link del goear perquè almenys la pugeu escoltar :P
http://www.goear.com/listen/da27188/pla ... imi-portet

moltes gracies!!! :taja:
salut i ha tocarla!!! :solo: :metal:
Kabre
Agafo la guitarra al revés
Agafo la guitarra al revés
 
Entrades: 5
Membre des de: 02 oct. 2009, 16:18
 

Re: PLATS BRUTS- Quimi Portet

EntradaAutor: AleixGibson » 18 set. 2010, 17:01

voto >.<
Avatar de l’usuari
AleixGibson
Dominant escales
Dominant escales
 
Entrades: 202
Membre des de: 05 gen. 2009, 12:16
 

Re: PLATS BRUTS- Quimi Portet

EntradaAutor: AleixGibson » 19 set. 2010, 16:49

he escoltat la cançó i he tret el puntejat... es d'oida potser esta malament XD:


-----------------------------------------------5------------5--------5---------
---------9-----------------7--------------------5------------5-----------------
-----------9-----------------7--------------------6------------6---------------
--------------9-----------------7-----------------------------------------------
--7-----------------5-----------------------------------------------------------
---------------------------------------5-----------------------------------------

---------------------------------------------------------------------------------
--------9-----------------7--------------------5-------------------------------
-----------9-----------------7--------------------6----------------------------
--------------9-----------------7-------------------7---------------------------
--7-----------------5-----------------------------------------------------------
---------------------------------------5-----------------------------------------
Avatar de l’usuari
AleixGibson
Dominant escales
Dominant escales
 
Entrades: 202
Membre des de: 05 gen. 2009, 12:16
 


Torna a: Peticions

Qui està connectat

Usuaris navegant en aquest fòrum: No hi ha cap usuari registrat i 1 visitant

cron