The Rasmus - Immortal [Main Riff] - 3/10

Fòrum del Tocamela Riffs, on els riffs més memorables de l'història de la música estàn explicats d'una manera ràpida i fàcil d'entendre. Vols aprendre el riff del Satisfaction? Entra aqui!
Regles del fòrum
Llegi-vos les normes del fòrum de Riffs abans de obrir un fil nou.

Imatge
Índex - Normes - Demana un Riff

The Rasmus - Immortal [Main Riff] - 3/10

EntradaAutor: 3nr1c » 13 gen. 2011, 20:05

Bueno aquí us porto un riff d'un grup que crec que no se n'ha parlat gaire al tocamela: The Rasmus. És un riff que quan li agafes el truquillo és molt fàcil de tocar (i de tocar fluid). Si voleu aconseguir un so semblant a l'original, poseu molta ganància (GAIN, el que fa que la guitarra s'acopli), i si teniu efectes, donçs no estaria malament un chorus fluixet i un reverb curt. Aquí va el riff:



(Sé que la qualitat no és massa bona si algun dia puc penjaré un video millor, al menys s'escolta bé).

Aquí teniu la tablatura:

|---------------------------------------------|
|---------------------------------------------|
|---------------------------------------------|
|------------------------0000---------0-------|
|-------1-1-4444-3-1--------333-1-3---3-1---|
|-3-3-0----------------3----------------------|

|---------------------------------------------|
|---------------------------------------------|
|---------------------------------------------|
|---------------------------------------------|
|-------1-1---3-2-----------------------------|
|-3-3-0---------------------------------------|

|---------------------------------------------|
|---------------------------------------------|
|---------------------------------------------|
|------------------------0000---------0-------|
|-------1-1-4444-3-1--------333-1-3---3-1---|
|-3-3-0----------------3-----------------------3|


I la cançó original:



Tocamela!
Avatar de l’usuari
3nr1c
Primers acords
Primers acords
 
Entrades: 29
Membre des de: 21 juny 2010, 16:00
 

Torna a: Riffs

Qui està connectat

Usuaris navegant en aquest fòrum: No hi ha cap usuari registrat i 1 visitant

cron