LENNY KRAVITZ - ARE YOU GONNA GO MY WAY 3/10

Fòrum del Tocamela Riffs, on els riffs més memorables de l'història de la música estàn explicats d'una manera ràpida i fàcil d'entendre. Vols aprendre el riff del Satisfaction? Entra aqui!
Regles del fòrum
Llegi-vos les normes del fòrum de Riffs abans de obrir un fil nou.

Imatge
Índex - Normes - Demana un Riff

LENNY KRAVITZ - ARE YOU GONNA GO MY WAY 3/10

EntradaAutor: chusaraque » 03 feb. 2010, 21:40

¿Quien no a oído este tema de Lenny? yo cuando lo oigo, me hace agitar mi larga melena al aire. Del tema se que es del 93, creo que el álbum se llama igual y del señor Kravitz, pues que es un músico que domina varios instrumentos, incluido la batería y que se atreve con una gran variedad de géneros musicales. Pues nada, aquí os dejo estos riffs Tocamelones. :metal: :metal:


Tabs:
Spoiler: ensenya
Tabs:  Lenny Kravitz:  Are You Gonna Go My Way?

Riff 1: ---- 2x ----
|-------------------------------------------3----|
|-------------------------------------------3----|
G 1 |-2-^4-^2-p0-------------2-^4-^2-p0--------------|
|------------2---0-2----------------2---0-2------|
|------------------------------------------------|
|--------------0-------0--------------0----------|

Riff 2: ---- 6x ----
|-------------------------------------------3----|
|-------------------------------------------3----|
G 1 |-2-^4-^2-p0-------------2-^4-^2-p0--------------|
|------------2---0-2----------------2---0-2------|
|------------------------------------------------|
|--------------0-------0--------------0----------|
| |
| |
|------------------------------------------------|
|-10^12^10p8-------------10^12^10p8--------------|
G 2 |------------9---7-9----------------9---7-9------|
|------------------------------------------------|
|------------------------------------------------|
|------------------------------------------------|

|---------------------------------------------------------
| Riff 3: ---- 4x ----
| |------------------------------------------------|
| |------------------------------------------------|
| G 1 |-2-^4-^2-p0-------------2-^4-^2-p0--------------|
| |------------2---0-2----------------2---0-2------|
| |------------------------------------------------|
| |--------------0-------0--------------0-------0--|
|
| I was born long ago
| I am the chosen I'm the one
| I have come to save the day
| And I won't leave until I'm done
|---------------------------------------------------------
| -- 3x -- ||
| |-----------------------||-------------------|
| |-----------------------||-------------------|
| G 1 |-5-^7-^5-p3------------||--5---4---3--2--4--|
| |------------5-0-3-5--0-||-------------------|
| |-----------------------||-------------------|
| |-----------------------||-------------------|
| | |
| | -- 3x -- || |
| |-----------------------||-------------------|
| |-13^15^13p11-----------||-------------------|
| G 2 |------------12--10-12--||--12--10--9--10-12-|
| |-----------------------||-------------------|
| |-----------------------||-------------------|
| |-----------------------||-------------------|
|
| So that's why you've got to try
| You've got to breathe and have some fun
|---------------------------------------------------------
| Riff 3 2x
|
| Though I'm not paid I play this game
| And I won't stop until I'm done
|---------------------------------------------------------

| Chorus:
| |----0-------------------0--------------------|
| |----0-------------------0--------------------|
| |----7-------------------6--------------------|
| |----9-------------------7--------------------|
| |---------------------------------------------|
| |---------------------------------------------|
| But what I really want to know is

| |------------------------------------------|
| |-9-9-7-9---------------------9-9--12-9----|
| |-9-9-7-9---------------------9-9--12-9----|
| |-9-9-7-9---------------------9-9--12-9----|
| |------------------------------------------|
| |------------------------------------------|
| Are you gonna go my way

| |----0---------------0------------------------|
| |----0---------------0------------------------|
| |----7---------------6------------------------|
| |----9---------------7------------------------|
| |---------------------------------------------|
| |---------------------------------------------|
| And I got to got to know
|
|---------------------------------------------------------
Riff 1 1x

Riff 2 3x
|---------------------------------------------------------
Riff 3 4x
I don't know why we always cry
This we must leave and get undone
We must engage and rearrange
And turn this planet back to one
|---------------------------------------------------------

-- 3x --------- ||
|-----------------------||-------------------|
|-----------------------||-------------------|
|-5-^7-^5-p3------------||--5---4---3--2--4--|
|------------5-0-3-5--0-||-------------------|
|-----------------------||-------------------|
|-----------------------||-------------------|
| |
| -- 3x -------- || |
|-----------------------||-------------------|
|-13^15^13p11-----------||--13--12--11-10-12-|
|------------12--10-12--||-------------------|
|-----------------------||-------------------|
|-----------------------||-------------------|
|-----------------------||-------------------|

So tell me why we got to die
And kill each other one by one
|---------------------------------------------------------
Riff 3 2x

We've got to love and rub-a-dub
We've got to dance and be in love
|---------------------------------------------------------

Chorus
|---------------------------------------------------------

Solo:
12x in total -- -- ending with:
|---------------------------------||-----------------|
|-9-----7-------7-------5-5-7-5---||-----------------|
|-9-----7-------7-------6-6-7-6---||-----------------|
|-9-----7-------7-------7-7-7-7---||-----0-1---------|
|---------------------------------||---4-------------|
|---------------------------------||-----------------|
(repeat 4x by itself, then 8x under solo

|---------------------------------------------------------

Outro:

Riff 2 4x


|-0----------0-------0-------------0-------|
|-0----------0-------0-------------0-------|
|-7----------6-------7-------------6-------|
|-9----------7-------9-------------7-------|
|------------------------------------------|
|------------------------------------------|

|---------------------------------------------------------

|------------------------------------------|
|-9-9-7-9---------------------9-9--7--9----|
|-9-9-7-9---------------------9-9--7--9----|
|-9-9-7-9---------------------9-9--7--9----|
|------------------------------------------|
|------------------------------------------|
Are you gonna go my way


|-0---------------0------------------------|
|-8---------------7------------------------|
|-7---------------6------------------------|
|-9---------------8------------------------|
|------------------------------------------|
|------------------------------------------|
'cause Baby I got to know


Tema original:
Spoiler: ensenya
chusaraque l’ha editat per darrera vegada el dia: 03 feb. 2010, 21:56, en total s’ha editat 1 vegada.
Long live Rock'n'Roll
Avatar de l’usuari
chusaraque
Dominant escales
Dominant escales
 
Entrades: 225
Membre des de: 16 nov. 2009, 14:32
Ubicació: Badalona
 

Re: LENNY KRAVITZ - ARE YOU GONNA GO MY WAY 3/10

EntradaAutor: Pac » 03 feb. 2010, 21:50

Que grande ere titor! ya tardabas por eso..que lo vi ayer o antes de ayer jejeje :P


Tremendo el tema, y genial como lo tocas!!!
K·sound
Avatar de l’usuari
Pac
Professor Hiperactiu
Professor Hiperactiu
 
Entrades: 3560
Membre des de: 02 set. 2008, 17:36
Ubicació: Badalona
 

Re: LENNY KRAVITZ - ARE YOU GONNA GO MY WAY 3/10

EntradaAutor: chusaraque » 03 feb. 2010, 21:58

Si, pero es que no he tenido tiempo de hacer el post, ala ya esta xD xD
Long live Rock'n'Roll
Avatar de l’usuari
chusaraque
Dominant escales
Dominant escales
 
Entrades: 225
Membre des de: 16 nov. 2009, 14:32
Ubicació: Badalona
 

Re: LENNY KRAVITZ - ARE YOU GONNA GO MY WAY 3/10

EntradaAutor: toletum91zgz » 03 feb. 2010, 22:06

Fantastico!!!

Mira que siempre la he querido aprender pero como la cancion en si ya la veia jodia de tocar, asi que siempre he pasado... Ahora mismo me voy a por la guitarra y a ver que tal... Por cierto, que, a ver cuando presentas tu candidatura a profesor, o que!? :cool:

Gracias por tocarnosla, Chus! =D

Y yo cuando me meti que creia que era To' "Camela"... xDD

Taprontioooorl! :cool:
Imatge

- Me gusta como suena. ¿Qué guitarra tienes?
- Pues a mi me gustan tus libros. ¿Que máquina de escribir usas?
Avatar de l’usuari
toletum91zgz
Profe
Profe
 
Entrades: 1508
Membre des de: 02 jul. 2009, 01:39
Ubicació: Zaragoza
 

Re: LENNY KRAVITZ - ARE YOU GONNA GO MY WAY 3/10

EntradaAutor: chusaraque » 03 feb. 2010, 23:07

Que diiiices Ro, pero si es muy facilita, esta la tocas tu mientras chateas jajaja...si fuera "to "camela" entonces no estaria yo aqui pero una que duerme al lado mio si xDD xDD xDD
Long live Rock'n'Roll
Avatar de l’usuari
chusaraque
Dominant escales
Dominant escales
 
Entrades: 225
Membre des de: 16 nov. 2009, 14:32
Ubicació: Badalona
 

Re: LENNY KRAVITZ - ARE YOU GONNA GO MY WAY 3/10

EntradaAutor: Pac » 03 feb. 2010, 23:28

eh eh!!! menos con camela eh?.....cuando encontreis un grupo con una tia que cante igual o mas alto que ella me avisais. Y si lo hacéis, que aun es probable...intentad buscadme a otro grupo que ademas de eso, tengan a un vocalista que cante aun mas agudo que ella!!!!

:muelte:
K·sound
Avatar de l’usuari
Pac
Professor Hiperactiu
Professor Hiperactiu
 
Entrades: 3560
Membre des de: 02 set. 2008, 17:36
Ubicació: Badalona
 

Re: LENNY KRAVITZ - ARE YOU GONNA GO MY WAY 3/10

EntradaAutor: Sruc » 03 feb. 2010, 23:34

Que gran, m'encanta aquesta cançó. Chus for president :brutal:

Pac ha escrit:eh eh!!! menos con camela eh?.....cuando encontreis un grupo con una tia que cante igual o mas alto que ella me avisais. Y si lo hacéis, que aun es probable...intentad buscadme a otro grupo que ademas de eso, tengan a un vocalista que cante aun mas agudo que ella!!!!

:muelte:

Al cantant ja el tinc, James Labrie (maleït veu de pito).
Imatge
Avatar de l’usuari
Sruc
Col·laborador Tocameló
Col·laborador Tocameló
 
Entrades: 687
Membre des de: 20 abr. 2009, 20:25
Ubicació: En una piña debajo del mar.
 

Re: LENNY KRAVITZ - ARE YOU GONNA GO MY WAY 3/10

EntradaAutor: Pac » 04 feb. 2010, 08:49

oh!, no aguanto la seva veu XD
K·sound
Avatar de l’usuari
Pac
Professor Hiperactiu
Professor Hiperactiu
 
Entrades: 3560
Membre des de: 02 set. 2008, 17:36
Ubicació: Badalona
 

Re: LENNY KRAVITZ - ARE YOU GONNA GO MY WAY 3/10

EntradaAutor: chusaraque » 04 feb. 2010, 22:23

El puto amo el James Labrie y su banda entera ,son unos crakcs. Paco, no te me vuelvas garrulo ehhh
Long live Rock'n'Roll
Avatar de l’usuari
chusaraque
Dominant escales
Dominant escales
 
Entrades: 225
Membre des de: 16 nov. 2009, 14:32
Ubicació: Badalona
 

Re: LENNY KRAVITZ - ARE YOU GONNA GO MY WAY 3/10

EntradaAutor: adrigabri » 25 març 2011, 18:03

molt bona!!
Avatar de l’usuari
adrigabri
Ja se fer el Fa
Ja se fer el Fa
 
Entrades: 125
Membre des de: 09 jul. 2009, 10:38
Ubicació: alcora,castelló
 


Torna a: Riffs

Qui està connectat

Usuaris navegant en aquest fòrum: No hi ha cap usuari registrat i 1 visitant

cron