Extremoduro - So payaso (3/10) (solo + tutorial)

Fòrum del Tocamela Riffs, on els riffs més memorables de l'història de la música estàn explicats d'una manera ràpida i fàcil d'entendre. Vols aprendre el riff del Satisfaction? Entra aqui!
Regles del fòrum
Llegi-vos les normes del fòrum de Riffs abans de obrir un fil nou.

Imatge
Índex - Normes - Demana un Riff

Extremoduro - So payaso (3/10) (solo + tutorial)

EntradaAutor: Ivanet » 22 ago. 2009, 19:54

Aquest és el solo que fan els d'extremoduro al minut 2:13 de la mítica cançó de So payaso. M'ha costat prou de traure-lo perquè encara no tinc massa velocitat però pense que al fí m'he fe amb ell jeje. Comenteu-me que vos pareix el meu primer Cover-Tuto d'un riff ejje.

(3/10)Quant a la puntuació, l'hauria posat un poc més alta, però com que ací tots saveu més que jo, l'he baixat un poc jejeje ja em direu que vos pareix.




La cançó original [goear]gyOkez1ckSI[/goear]
minut 2'13"


Tab:
Spoiler: ensenya
Codi: Selecciona’l tots
E|--------------------------------10---------------------------------
B|--10b---10b--8-8-------8--10b-------10--8-7-8-7h8p7----------------
G|---------------------9-------------------------------9-------------
D|-------------------------------------------------------------------
A|-------------------------------------------------------------------
E|-------------------------------------------------------------------


         
E|-------------------------------------------------------------------
B|-----------8--8--7--7----------------------------------------------
G|----7--9----------------9--9--7--7---------------------------------
D|-------------------------------------9--9--7--7--5--7--5--7s9------
A|-------------------------------------------------------------------
E|-------------------------------------------------------------------
     


E|-------------------------------------------------------------------
B|----------------------8-----10b--10b--10b--8-----------------------
G|---7------7--9--7--9-----9-----------------------------------------
D|-------9-----------------------------------------------------------
A|-------------------------------------------------------------------
E|-------------------------------------------------------------------


Solament dir-vos que no és exactament el que faig jo, però a partir d'ahí ja podeu fer la vostra versió ;).

Vinga Salut :taja:
Ivanet l’ha editat per darrera vegada el dia: 22 ago. 2009, 22:26, en total s’ha editat 1 vegada.
Disciple de JerryC jejeje
Avatar de l’usuari
Ivanet
Començo a tocar-la
Començo a tocar-la
 
Entrades: 55
Membre des de: 22 març 2009, 17:27
 

Re: Extremoduro - So payaso (3/10)

EntradaAutor: skaber13 » 22 ago. 2009, 21:22

De conya, no sembla dificil pero millor canvia el titol i fica (solo) entre parentessi!! :solo: :solo: :metal: :metal: :brutal: :brutal:
Avatar de l’usuari
skaber13
He lligat amb la guitarra
He lligat amb la guitarra
 
Entrades: 487
Membre des de: 10 feb. 2009, 00:03
 

Re: Extremoduro - So payaso (3/10) (solo + tutorial)

EntradaAutor: nana_11 » 23 ago. 2009, 22:38

seeeeeeeeeeeeeeeeeeeeeeeeeeh!

E-X-T-R-E-M-O-D-U-R-O
Avatar de l’usuari
nana_11
Col·laborador Tocameló
Col·laborador Tocameló
 
Entrades: 389
Membre des de: 21 abr. 2008, 17:47
 

Re: Extremoduro - So payaso (3/10) (solo + tutorial)

EntradaAutor: Ivanet » 23 ago. 2009, 23:33

jeje aupa Extremoduro sempre! jeje :metal: :metal: :metal:

Gràcies ejej
Disciple de JerryC jejeje
Avatar de l’usuari
Ivanet
Començo a tocar-la
Començo a tocar-la
 
Entrades: 55
Membre des de: 22 març 2009, 17:27
 

Re: Extremoduro - So payaso (3/10) (solo + tutorial)

EntradaAutor: adrigabri » 06 abr. 2011, 22:26

molt bona
Avatar de l’usuari
adrigabri
Ja se fer el Fa
Ja se fer el Fa
 
Entrades: 125
Membre des de: 09 jul. 2009, 10:38
Ubicació: alcora,castelló
 


Torna a: Riffs

Qui està connectat

Usuaris navegant en aquest fòrum: No hi ha cap usuari registrat i 1 visitant

cron