Pàgina 2 de 2

Re: MUSE - Knights Of Cydonia - 5/10

EntradaPublicat: 21 ago. 2009, 13:40
Autor: Pac
el comentari anterior.....no intentis entendre'l.....de veritat!!

Donç fotli canya, aquesta cançó es grutal!! i a veure si em busco un efecte al pedals que pugui simular aquesta: Stockholm Syndrome, que la faré, escoltala tambè!!!

Re: MUSE - Knights Of Cydonia - 5/10

EntradaPublicat: 21 ago. 2009, 15:08
Autor: Gerard Merino
Pac ha escrit:el comentari anterior.....no intentis entendre'l.....de veritat!!

Donç fotli canya, aquesta cançó es grutal!! i a veure si em busco un efecte al pedals que pugui simular aquesta: Stockholm Syndrome, que la faré, escoltala tambè!!!


No he dit de fotreli canya a aquesta cançó x'DDDDDDDD és que ara estic amb un projecte entre mans jejejejejeje :cool:

Quan ho tingui llest ho penjaré jejejejejejejeje :solo: :solo: :solo:

Re: MUSE - Knights Of Cydonia - 5/10

EntradaPublicat: 23 des. 2009, 15:33
Autor: Sruc
Voilà




Spoiler: ensenya
e|---------------------------------------|--------------------------------------|
B|---------------------------------------|--------------------------------------|
G|---------------------------------------|--------------------------------------|
D|-5---4--2--0-----2--4--5----4--2--0----|-1----2--4--2---5--7--8----7--8--9----|
A|---------------------------------------|--------------------------------------|
E|---------------------------------------|--------------------------------------|

e|----------------|----------------|----------------|----------------------|
B|----------------|----------------|----------------|----------------------|
G|-8---5--0--7----|-8---7--5--3----|-7---5--3--5----|-3--1--3----4----5----|
D|----------------|----------------|----------------|----------------------|
A|----------------|----------------|----------------|----------------------|
E|----------------|----------------|----------------|----------------------|

Re: MUSE - Knights Of Cydonia - 5/10

EntradaPublicat: 24 des. 2009, 01:26
Autor: RockMan
MOlt bona si senyor!!... grande Pac! :brutal: :brutal: :metal: :solo:

Re: MUSE - Knights Of Cydonia - 5/10

EntradaPublicat: 07 gen. 2010, 21:14
Autor: Pac
Sruc ha escrit:Voilà




Spoiler: ensenya
e|---------------------------------------|--------------------------------------|
B|---------------------------------------|--------------------------------------|
G|---------------------------------------|--------------------------------------|
D|-5---4--2--0-----2--4--5----4--2--0----|-1----2--4--2---5--7--8----7--8--9----|
A|---------------------------------------|--------------------------------------|
E|---------------------------------------|--------------------------------------|

e|----------------|----------------|----------------|----------------------|
B|----------------|----------------|----------------|----------------------|
G|-8---5--0--7----|-8---7--5--3----|-7---5--3--5----|-3--1--3----4----5----|
D|----------------|----------------|----------------|----------------------|
A|----------------|----------------|----------------|----------------------|
E|----------------|----------------|----------------|----------------------|



ieeee!! amb el meu despiste...que xaxi!!! molt guapo Sruc, de fet, lo únic que et falta es una eléctrica amb una fernandes sustainer i un fuzzfactory...amb lo que fas ja sonaries jejeje

Xaxi per que jo em vaig estar mirant els acords coresponents en el seu moment...a veure si m'ho miro de nou i ho pasem a Tablatures/Acords amb els dos riffs ;)

Re: MUSE - Knights Of Cydonia - 5/10

EntradaPublicat: 12 gen. 2010, 19:21
Autor: hardcano12
:brutal: :brutal:
Com m'agrada aquesta cançó!!!!!
Pujaa més videeooss k u fass de puuutisima mareee!! :metal: :metal: :brutal: :brutal:
x cert, en un moment ja m'ho he apres...
tu ho fas més dificil que a la tab oii??

Appaa..
a tocar-laaa!!

Re: MUSE - Knights Of Cydonia - 5/10

EntradaPublicat: 12 gen. 2010, 19:42
Autor: Pac
oh yeah!!! gràcies mil!! cony, feu peticions..que quan em poso no em ve al cap ni una jejeje

Re: MUSE - Knights Of Cydonia - 5/10

EntradaPublicat: 06 abr. 2011, 22:15
Autor: adrigabri
molt bona!!

Re: MUSE - Knights Of Cydonia - 5/10

EntradaPublicat: 13 abr. 2011, 16:36
Autor: ohthebest
Muy guapa !
Yo ahora me estoy aprendiendo esta pero entera y joder, me faltan muchos efectos para que se parezca, aparte de nivel por que hay partes chunguillas para mi !