Pàgina 1 de 1

Normes del fòrum de Riffs

EntradaPublicat: 30 març 2009, 12:27
Autor: Tocamela
El fòrum de riffs està pensat perquè TOT/ES ELS TOCAMELON/ES PUGUEM COMPARTIR ELS NOSTRES RIFFS PREFERITS. Tothom pot penjar el riff que vulgui però siusplau, llegiu-vos el pal que ve a continuació per fer d'això (o almenys deixeu-m'ho creure) un oasi de decència del contingut tocameló. Les normes aqui exposades no cal que les desenvolupeu al fil de Culturilla Musical: El riff misteriós!!! que ha sigut el fil que ens ha motivat a obrir aquest nou subfòrum.

Si voleu també podeu demanar que us passem per MP el codi font escrit d'un d'aquests riffs, que així us resultarà més senzill a l'hora d'escriure el post. => valls o també podeu fer una cita (quote) d'un dels seus riffs i fer el copy-paste en un tema nou i només n'heu de canviar les tablatures, explicació i vídeos


UN TUTORIAL DE RIFF TOCAMELA HA DE TENIR

1. TÍTOL

Que ha de tenir i per aquest ordre, GRUP - TEMA - DIFICULTAT/10
Per calcular la dificultat agafeu vosaltres mateixos la referència numèrica dels primers videos d'en Valls. Si creiem que està massa baixa/alta ja l'editarem :P

2. INTRO

Un escrit del Riff que tocareu, del grup, de la tècnica concreta que es fa servir, de l'escala en què es toca, de si li toques a la veïna del 5è o de si has rebentat deu jocs de cordes tocant-lo.. tant detallat com vulgueu, o no.
Just a sobre del video siuplau torneu-hi a col·locar la dificultat del Riff amb lletra Large

3. VIDEO

- 3.1. Penjar un video al youtube :| o al vimeo (millor qualitat): Estarien be uns mínims de qualitat lúminica i sonora a part de saber tocar una guitarra.

- 3.2. Penjant el video a la pàgina. Més info aqui


4. TABULATURA

- 4.1. Copy paste de la tablatura penjada on sigui.. http://www.ultimate-guitar.com/ té un arxiu inmens i en general molt currades. A vegades per això l'haureu d'arreglar una mica igualment, us recomano fer servir el notepad per això i quan la tingueu a punt:

Poseu la tablatura - Painkiller d'exemple i veureu que quedarà així:

|-------------------------------------|-------------------------------|
|-------------------------------------|-------------------------------|
|-------------------------------------|-------------------------------|
|-------------------------------------|-------------------------------|
|-7-----5-----7-----8-----7-----------|-7-----5-----7-----8-----8-8---|
|---0-0---0-0---0-0---0-0---0-5br-3-0-|---0-0---0-0---0-0---0-0-6-6---|

- 4.2. Perquè quedi ordenada heu d'escriure l'ordre pre tal com es veu al gràfic de sota:

Codi: Selecciona’l tots
[pre]
|-------------------------------------|-------------------------------|
|-------------------------------------|-------------------------------|
|-------------------------------------|-------------------------------|
|-------------------------------------|-------------------------------|
|-7-----5-----7-----8-----7-----------|-7-----5-----7-----8-----8-8---|
|---0-0---0-0---0-0---0-0---0-5br-3-0-|---0-0---0-0---0-0---0-0-6-6---|[/pre]


I si voleu explicar més històries endavant.. Tant com vulgueu

- 4.3. Si em pugeu el backingtrack ja seria la tralla. Ni que sigui per grabar-vos tocant sempre queda més molon. Podeu trobar-ne a http://guitarbackingtracks.com i penjar-lo així.


5. TEMA ORIGINAL

Pots pujar el Mp3 original. Hem de veure lo fins que hem estat tocant el tema, trobant-ne el so i que collons.. que no tothom el coneixerà. Videotutorial de com pujar un MP3 al fòrum.

- 3.2. Penjant el video a la pàgina. Més info aqui


6. MÍNIM DE QUALITAT

S'ha de veure bé el mastil, i s'ha de escoltar bé. Per descomptat el riff l'heu de tocar amb un mínim de soltura.
Els vídeos que no tinguin suficient qualitat els posarem a un altre subfòrum; explicant perquè ho hem fet.



PD: M'agradaria dedicar el nou subfòrum a en blackmogul ja que aquest experiment ve d'aqui 8-)

Salut i a tocar-la!!!!
valls

Re: Normes del fòrum de Riffs

EntradaPublicat: 14 gen. 2010, 11:04
Autor: valls
Sobre la dificultat que poseu m'agradaria que prenguessiu aquests videos d'exemple i en valoreu la del vostre riff.

Dificultat: 1/10


Dificultat: 2/10


Dificultat: 3/10


Dificultat: 4/10


Dificultat: 5/10


Dificultat: 6/10